Alma Viajera, La Colosa (acordes)

Autor: enzo_intoxicado | 39923 visualizaciones

dofalalasosresolsolsos
Intro: Fa-Do x2

Fa                                        Do
Esos viejos zapatos ya estan muy gastados y no van a correr
Fa                                  Do
El rock & roll i el vino te dejaron pateando las calles del barrio ke fue..
La#                                 Fa
Y esa alma viajera que no quiere bajar
     La#                        Fa
Y el barro de ayer te embarra igual
Do                                    Fa
Pero calsate las topper y mandate a mudar
     Do                                 Fa
Y escucha el agua que hoy empezo a gotear
    Do                         Fa    Sol-Sol#-La
Empaca las maletas y arranca asii


       La#               Fa
Y con algun vicio nocturno que me de placer
    Do              Re                Fa
Y alguna chica turra que me pueda atender


solo:

1/-5-4-3
2/------
3/-5-4-3

Do-Fa-Do-Fa-La#-Fa-La#-Fa-Do-Fa

        Fa                    Do
Y ese viejo tren hoy llegara muy tarde
Fa                      Do
Sera mejor volver caminando
          La#                             Fa
Porque el agua en las botas se te esta sumando
     La#                  Fa
Esa malvada dama te esta matando
      Do                                   Fa
Y es una de esas noches para pasar un buen rato
     Do                               Fa
Enrollate y deja que el humo seque tu labios
        Do                 Fa    Sol-Sol#-La
Nena el tiempo esta de mi lado

       La#               Fa
Y dale algun vicio nocturno que me de placer
    Do              Re                Fa  Sol-Sol#-La
Y alguna chica turra que me pueda atender

       La#                     Fa
Y dale algun vicio nocturno que me mucho placer
    Do              Re               La#  Do  Fa
Y alguna chica turra que me pueda atender




aca tambien les dejo los punteos:

s: deslisar hasta...
v: estirar la cuerda hacia arriba y darle un poco de bibrato

1:51

1|------------------------------------------------------|
2|-----6-8v--6-6---8v-6----6--8v--6-6--10-9-8-6---------|
3|--5-7-------7---------5-7--------7--------------------|
4|------------------------------------------------------|
5|------------------------------------------------------|
6|------------------------------------------------------|

1|----8s10-8---------------------8s10-8-----------------|
2|---6------10-8------6-8-8v--6-6------10-8-------------|
3|--7-----------10---7-------7-7-----------10-----------|
4|------------------------------------------------------|
5|------------------------------------------------------|
6|------------------------------------------------------|

1|--------------------------------8----13-13------------|
2|---6-8-8v-6-------6-8v-6-6--8s10---15--------------6--|
3|--7------7-7---5s7----7-7----------------------5s7----|
4|------------------------------------------------------|
5|------------------------------------------------------|
6|------------------------------------------------------| 
Calificar esta versión:
Aviso: Este fichero es trabajo propio de su transcriptor y representa su interpretación personal de la canción. El material contenido en esta página es para exclusivo uso privado, por lo que se prohibe su reproducción o retransmisión, así como su uso para fines comerciales.