La Balada, La Castañeda (acordes)

Autor: vic_91 | 40460 visualizaciones

aasus2bmcsosmdfsosggsos
primero se toca 4 veces y luego empiesa la letra
arpegio
 Asus2/F                 A   Asus2/F               Asus2
|--------------------------0---------------------------0--|
|--------0-----------------2---------0-----------------0--|
|*-----2---2-----------2---2-------2---2-----------2---2-*|
|*---3-------3-----2-------2-----3-------3-----2-------2-*|
|--0-----------0---------------0-----------0--------------|
|---------------------------------------------------------|
 en la letra sigue tocando el arpegio  
                        
PERDI MIS MANOS POR QUERER TOCARTE SIEMPRE
PERDI MIS BRAZOS POR CREER QUE SIEMPRE ESTARIAS AHI    
O LO VIVI,   O LO SOÑE       
O LO VIVI,   O LO VIVI 

haces una pausa y sigues con el arpegio


PERDI MIS PIERNAS POR ANDAR SOBRE TUS PASOS
Y EN EL FRACASO ME QUEDE Y NUNCA MAS ME IRE
O LO VIVI, O LO SOÑE
O LO VIVI, O LO VIVI

y despues son estos los acordes
 Bm            G
   PORQUE CADA VEZ QUE TE ALEJAS
     D          F#   Bm
ME DEJAS DESANGRAR
             G
PORQUE CADA VEZ QUE TE LARGAS
     D            F#
ME ARRANCAS ME DESCARNAS
                Bm           G
NO YA NO HAY MAS, YA NO HAY MAS

      D                      A 
YA CORTASTE MIS BRAZOS MIS PIERNAS
               Bm           G
Y YA NO DOY MAS, YA NO HAY MAS
        D                   A 
YA MI CARNE SE ENCUENTRA CONTIGO
          Bm   G Bm G
EN OTRO LUGAR

despues aqui suiges con el arpegio del principio

PERDI LA FORMA DE PODER ACARICIARTE

SOLO LA BOCA ME QUEDO PARA LLAMARTE

O LO VIVI, O LO SOÑE

O LO VIVI, O LO VIVI


C#m    A             G#
SALVAME NO ME DEJES SANGRAR
       C#m
YA NO QUEDA MAS NO
A             G#
NO ME DEJES SANGRAR, SANGRAR, SANGRAR


POR QUE CADA VEZ....


Y VAS A TERMINAR CON ESTE ARPEGIO




E-----2---------3-------5--------
B----3-3---------3-----5-5H7-5---
G---4---4-----4---4---7-------7--
D--4-----4---5-----5-7---------7-
A-2---------5-------5------------
E----------3---------------------


E-----5--------2----2-------
B------5------3-3----3------
G----6--6----4---4----4-----
D---7----7--4-----5----4----
A--7-------2------------2---
E-5-------------------------

 

Comentarios del colaborador: LA CUERDA.NET

Calificar esta versión:
Aviso: Este fichero es trabajo propio de su transcriptor y representa su interpretación personal de la canción. El material contenido en esta página es para exclusivo uso privado, por lo que se prohibe su reproducción o retransmisión, así como su uso para fines comerciales.