Que Esta Bien, La Beriso (tablatura)

Autor: chicometal | 17032 visualizaciones



D
que esta bieeen
                      G      RIFF 1    [G - A]
y quien me lo puede decir
      A                                   D     RIFF 2    [D]
estoy arto de las ceremonias me quiero divetir
      D
trabajas
                  G
para un futuro mejor
          A                                D
despues llegas a viejo y dos mangos es tu jubilacion

G          A          D     RIFF 3    [D]
despues de haberlo yo vivido
G          A           D-G-D
no quiero que te pase a vooos
G          A            D5             A5        G5
taaanto dolor ya no me cabe en este cuerpo mi amoor
           G                      A                        D
ya no comprendo que me digan de afuera que se mueren de amoor

        D
por favoor
                 G      RIFF 1    [G - A]
cuidate al regresar
       A                                          D     RIFF 2    [D]
y que nunca te atrape por la calle la horrible soledad
        D
drogas no!!
                         G
y vos quien te crees que sos?
        A                                       D
fumar me alivia me aparta me saca este maldito dolorr

G          A          D       RIFF 3 [D]
despues de haberlo yo vivido
G          A           D-G-D
no quiero que te pase a vooos
G          A            D5             A5        G5
taaanto dolor ya no me cabe en este cuerpo mi amoor
           G                      A                        D
ya no comprendo que me digan de afuera que se mueren de amoor


solillo [ D - G - A - D] x 2
                                 aca esta parte va
       D                         arpegiada al final
estudiaaas                       estan tabuladas las notas
                  G
para ser alguien mas
              A                                   D
despues te obligan a juntar cartones por toda la cuidad
        D
drogas no!!
                          G
y vos quien te crees que sos?
           A                                      D
fumar me alivia me aparta me saca este maldito doloorr

G          A          D       RIFF 3 [D]
despues de haberlo yo vivido
G          A           D-G-D
no quiero que te pase a vooos
G          A            D5             A5        G5
taaanto dolor ya no me cabe en este cuerpo mi amoor
           G                      A                        D
ya no comprendo que me digan de afuera que se mueren de amoor

G          A            D5             A5        G5
taaanto dolor ya no me cabe en este cuerpo mi amoor
           G                      A                        D
ya no comprendo que me digan de afuera que se mueren de amoor


    RIFF 1    [G - A]
    G                           A
e|-----10b---------10b--------|----12b------------12b--------
B|--10b--- 10-8--10b----10-8--|-12b-----12-10--12b----12-8---
G|----------------------------|------------------------------
D|----------------------------|------------------------------
A|----------------------------|------------------------------
E|----------------------------|------------------------------

    RIFF 2    [D]
    D
e|---------------------------
B|---------------------------
G|---------5---5-7b-7b-7~----
D|-----5-7---7---------------
A|-5-7-----------------------
E|---------------------------

    RIFF 3    [D]
    D
e|-10-9-7-------------------
B|--------10-9-7------------
G|---------------9-7-9b-7~--
D|--------------------------
A|--------------------------
E|--------------------------


parte de ESTUDIASS.. bla bla

   D           G           A           D

e|-2--2---2----3--3---3----0--0---0----2--2---2---
B|-3---3---3---3---3---3---2---2---2---3---3---3--
G|-2----2---2--0----0---0--2----2---2--2----2---2-
D|-0-----------0-----------2-----------0----------
A|-------------2-----------0----------------------
E|-------------3----------------------------------



   D           G           A                 D5

e|-2--2---2----3--3---3----0--0---0-----------------
B|-3---3---3---3---3---3---2---2---2----------------
G|-2----2---2--0----0---0--2----2---2------7-777-7--
D|-0-----------0-----------2---------------7-777-7--
A|-------------2-----------0---------------5-555-5--
E|-------------3------------------------------------





Calificar esta versión:
Aviso: Este fichero es trabajo propio de su transcriptor y representa su interpretación personal de la canción. El material contenido en esta página es para exclusivo uso privado, por lo que se prohibe su reproducción o retransmisión, así como su uso para fines comerciales.