Buena Suerte, La Beriso (acordes)

Autor: german_cjs_ | 35078 visualizaciones

abegsos


 E-G#-A x4 

    E     G#    A 
e|-----0----4-----55----5-7-9-7-5-|
B|----0------4----55--------------|
G|-0h1---4/5---5/6---5/6----9-7-6-|
D|--------------------------------|
A|--------------------------------|
E|--------------------------------|


    E     G#    A 
e|-----0----4-----5----7----9-999-7-5-|
B|----0------4----5-------------------|
G|-0h1---4/5---5/6--6/7--7/9--999-7-6-|
D|------------------------------------|
A|------------------------------------|
E|------------------------------------|



E     G#         A 
Su sonrisa me atrapó
E    G#      A 
algo se paralizó

E     G#         A 
Su vestido se iluminó
E     G#         A 
y la luna se oscureció

[PUENTE]

Escuchamos la mejor canción
susurrando me la cantó

Con sus pies me acarició
con su boca se despidió

E    B             A 
Que tengas buena suerte amor
E       B             A 
que te trate bien tu mejor Sol 

E         B    A 
Tarde la vida nos cruzó
E  B              A 
y solo canciones nos dejó

[PUENTE]


Por su espalda quiero correr hoy
en su boca quiero ahogarme yo

Desnudarla fue el mejor sabor
y de todo algo nos quedó


Que tengas buena suerte amor
que te trate bien tu mejor Sol 

Tarde la vida nos presentó
y solo canciones nos dejó

[PUENTE]

Vamos que tengas buena suerte amor
que te trate bien tu mejor Sol 

Tarde la vida nos presentó
y solo canciones nos dejó

Vamos que tengas buena suerte amor
que te trate bien tu mejor Sol 

Tarde la vida nos presentó
y solo canciones nos dejó
 





Calificar esta versión:
Aviso: Este fichero es trabajo propio de su transcriptor y representa su interpretación personal de la canción. El material contenido en esta página es para exclusivo uso privado, por lo que se prohibe su reproducción o retransmisión, así como su uso para fines comerciales.