Nadia - Esta Libertad, La Academia (tablatura)

Autor: Anónimo | 39305 visualizaciones

LOS PONGO CON NUMERO PORQUE NO ME ACUERDO BIEN DE COMO SE LLAMAN

ACORDES:
   (1)   (2)    (3)   (4)
E|--6-- --5-- ---3-- --1-- 
B|--6-- --6-- ---3-- --1-- 
G|--7-- --7-- ---3-- --2-- 
D|--8-- --7-- ---5-- --3-- 
A|--8-- --5-- ---5-- --3--
E|--6-- --5-- ---3-- --1--

INTRO: 1-2-3-4
       1-2-3-4
E|--------------------17-19-17-13-15--------22-21-19-15-13---
B|-------------15--17--------------------18------------------
G|-15----15-17-----------------------------------------------
D|-----------------------------------------------------------
A|-----------------------------------------------------------
E|-----------------------------------------------------------

E|------------17-19-17-13------15-13---------------------------------|
B|------15-17------------------------17-15-17-15------------------15-|
G|-15-17-----------------------------------------17-15-14---15-17----|
D|-------------------------------------------------------------------|
A|-------------------------------------------------------------------|
E|-------------------------------------------------------------------|

VERSO: 1-2-3-4
       1-2-3-4
       1-2-3-4
       1-2-3-4

CORO:  1-2-3-4
       1-2-3-4
       1-2-3-4
       1-2-3-4

INTRO: 1-2-3-4  
E|------------17-19-17-13------15-13---------------------------------|
B|------15-17------------------------17-15-17-15------------------15-|
G|-15-17-----------------------------------------17-15-14---15-17----|
D|-------------------------------------------------------------------|
A|-------------------------------------------------------------------|
E|-------------------------------------------------------------------|

VERSO: 1-2-3-4
       1-2-3-4
       1-2-3-4
       1-2-3-4

CORO:  1-2-3-4
       1-2-3-4
       
SOLO: 1-2-3-4
E|--5/10^-10-8----8^------5/8--8-6---6^----------------8^6^5^----|
B|-------------10------------------8----8^^^8-----6h8-------6^--|
G|---------------------------------------------------------------|
D|---------------------------------------------------------------|
A|---------------------------------------------------------------|
E|---------------------------------------------------------------|

CORO:  1-2-3-4
       1-2-3-4
       1-2-3-4
       1-2-3-4

INTRO: 1-2-3-4
       1-2-3-4
E|----------------17-19-17-13-15--------|
B|---------15--17-----------------------|
G|---15-17------------------------------|
D|--------------------------------------|
A|--------------------------------------|
E|--------------------------------------|

Fuente original: LaCuerda
Colaborador original: JOEL BERNABE FLORES SANTOS [yoelapon@hotmail.com]
Calificar esta versión:
Aviso: Este fichero es trabajo propio de su transcriptor y representa su interpretación personal de la canción. El material contenido en esta página es para exclusivo uso privado, por lo que se prohibe su reproducción o retransmisión, así como su uso para fines comerciales.