Ahora Que Te Vas, La 5a. Estación (tablatura)

Autor: Anónimo | 30830 visualizaciones

e-------------------------------8-6-5----------------------|
B-------8v-8-6-8-8s10-----------------8-----5h7-5----------|
G---5-----------------------5------------------------------|
D----------------------------------------------------------|
A----------------------------------------------------------|
E----------------------------------------------------------|

e--8-8-8-10-12-8-8h10-----8----8h10--8---------------------|
B---------------------------10---------10-8h10-8vvv--------|
G----------------------------------------------------------|
D----------------------------------------------------------|
A----------------------------------------------------------|
E----------------------------------------------------------|





Dm C Am7 Ahora que te vas, quiero pensar que estarás bien F C F que mi dolor te hizo encontrar un nuevo hogar. Dm Bb F Ahora que te vas, no habrá alegría en mi jardín, C F y guardaré aquél mes de enero para ti. Gm Dm Ahora que te veo marchar, veo la vida como tu, Bb C Bb en blanco y negro soñaré si tu no estás. F C Ahora que te vas, yo te guardo un sentimiento Dm Bb C porque se que no es correcto dejar nuestra vida atrás. F Gm Ahora que te vas, ahora que te veo marchar, Dm Bb C antes debo confesarte que has dejado un plato sucio en tu lugar. Dm Bb C Dm C Am7 Ahora que te vas, no habrá completa oscuridad F C F y si me olvidas pensaré que no es verdad. Gm Dm Ahora que te veo marchar, veo la vida como tu Bb C Bb en blanco y negro soñaré si tu no estás. F C Ahora que te vas, yo te guardo un sentimiento Dm Bb C porque se que no es correcto dejar nuestra vida atrás. F Gm Ahora que te vas, ahora que te veo marchar, Dm Bb C antes debo confesarte que has dejado un plato sucio en tu lugar. F Bb C Dm-C Bb C Ahora que te vas, quiero que duermas junto a mi, Dm Bb C que nuestra cama cree sueños para ti. F C Ahora que te vas, yo te guardo un sentimiento Dm Bb C porque se que no es correcto dejar nuestra vida atrás. F Gm Ahora que te vas, ahora que te veo marchar, Dm Bb C F antes debo confesarte que has dejado un plato sucio en tu lugar.
Calificar esta versión:
Aviso: Este fichero es trabajo propio de su transcriptor y representa su interpretación personal de la canción. El material contenido en esta página es para exclusivo uso privado, por lo que se prohibe su reproducción o retransmisión, así como su uso para fines comerciales.