Se Fue Mi Amor, Kumbia Kings (acordes)

Autor: rolax2011 | 40820 visualizaciones

amcdemg
Intro:

E---------------------------------------------------
A---------------------------------------------------
D---------------------------------------------------
G---------------------------------------------------
B-10-8-7-10-8-7-10-8-7-10-8-7-8-10-8-7-10-8-7---10--
e---------------------------------------------7-----


E---------------------------
A---------------------------
D---------------------------
G---------------------------
B----------------10---------
e-7-8-10-8-8-7-7------------


    G
Porque se fue de mi no dijo adiós

     Em
porque se fue si aquí sobraba amor

        C                        D/D9
yo le pregunto al cielo en cada amanecer  RIFF 1



      G
Porque se fue si aquí fue tan feliz

     Em
le di todo lo bueno que hay en mi 

      C                        D/D9
y ahora estoy vació extrañándola   RIFF 2


                      RIFF 3

        Em        D     G                C
Yo no se si volverá y la puerta abierta estará

       C/C7                Am          D
Porque vivo ilusionado y algún día regresara

Coro:

     G                       Em
Se fue mi amor donde estas corazón

        C                         D/D9
Vuelve ya por favor te necesito a mi lado

     G                       Em
Se fue mi amor donde estas corazón

     C/C7                           D/D9       G
no quiero sufrir mas por favor regresa pronto ya


solo:

E---------------------------------------------------
A---------------------------------------------------
D---------------------------------------------------
G---------------------------------------------------
B-10----------------10-10----------------10-7-10-8--
e----7-8-10-8-8-7-7-------7-8-10-8-8-7-7------------


SE REPITE TODO

Porque se fue de mi no dijo adiós.....


Regresa pronto ya


 Y viene otro solo:

E---------------------------------------------------
A---------------------------------------------------
D---------------------------------------------------
G----------------------------------11-12--------12--
B-------------------12----12-12-10-------10-12------
e-12-11-12-12-14-11----15---------------------------

porque vivo ilusionado y algún día regresara?


coro= 1 vez



final    x 3


E---------------------------------------------------
A---------------------------------------------------
D---------------------------------------------------
G---------------------------------------------------
B-10-8-7-10-8-7-10-8-7-10-8-7-8-10-7-8-10-8-7-10----
e---------------------------------------------------


riff 1

G-------------------
B--7-7-8-10---8-----
e-----------7-------


riff 2

G--------------------
B-7-7-8-10-----------
e----------7---------



riff 3

D---------------------------------------------------
G----------------------------------11-12--------12--
B-------------------12----12-12-10-------10-12------
e-12-11-12-12-14-11----15---------------------------
Calificar esta versión:
Aviso: Este fichero es trabajo propio de su transcriptor y representa su interpretación personal de la canción. El material contenido en esta página es para exclusivo uso privado, por lo que se prohibe su reproducción o retransmisión, así como su uso para fines comerciales.