Palabras Que Sangran, Kraken (tablatura)

Autor: Anónimo | 39438 visualizaciones



Bueno este temazo me hace hervir la sangre asi que espero logre
el mismo efecto en ustedes, fuemuy teso sacarlo por lo de la
afinacion, espero les guste y les sea claro el tab.

Afinación: Drooping D
1=e 2=B 3=G 4=D 5=A 6=D
Intro:
e|---------------------------------|
B|--15--13--16--15-----------------|
G|------------------15--14--12--14-|
D|---------------------------------|
A|---------------------------------|
D|---------------------------------|

e|---------------------------------|
B|--15--13--16--15-----------------|
G|------------------15--14--12--14-|
D|---------------------------------|
A|---------------------------------|
D|---------------------------------|

e|---------------------------------|
B|---------------------------------|
G|--15--14--12--14--10--9--12--10--|
D|---------------------------------|
A|---------------------------------|
D|---------------------------------|

e|--------------------------------------|
B|-----------------------------------15-|
G|--------------------------------14----|
D|--------------------11-11-11-12-------|
A|--13-13-13-12-12-12-------------------|
D|--------------------------------------|

Con Wah-Wah
e|--------------------------------------|
B|--------------------------------------|
G|--------------------------------------|
D|-10----10----12----12----9----12----0-|
A|-8-----8-----10----10----7----10----0-|
D|------------------------------------0-|

e|--------------------------------------|
B|-----------------------------------15-|
G|--------------------------------14----|
D|--------------------11-11-11-12-------|
A|--13-13-13-12-12-12-------------------|
D|--------------------------------------|

e|---------------------------------|
B|---------------------------------|
G|---------------------------------|
D|-10----10----12----12----9----12-|
A|-8-----8-----10----10----7----10-|
D|---------------------------------|

Quien suele atender…
e|-------------------------------------------------|
B|-------------------------------------------------|
G|-------------------------------------------------|
D|-5/7---------------------5/7---------------------|
A|-3/5-0-0-0-0-0-0-0-0-0-0-3/5-0-0-0-0-0-0-0-0-0-0-|
D|-----0-0-0-0-0-0-0-0-0-0-----0-0-0-0-0-0-0-0-0-0-|
                                          Se siente
e|-------------------------------------------------|
B|-------------------------------------------------|
G|-------------------------------------------------|
D|-5/7---------------------5/7---------------------|
A|-3/5-0-0-0-0-0-0-0-0-0-0-3/5-0-0-0-0-0-0-0-0-0-0-|
D|-----0-0-0-0-0-0-0-0-0-0-----0-0-0-0-0-0-0-0-0-0-|

perdiiiido…
e|--------------------------------------------------------------|
B|--------------------------------------------------------------|
G|--------------------------------------------------------------|
D|------------8-8-8-8-8-8----------------------10-10-10-10-10-10|
A|--------------------------------------------------------------|
D|8-8-8-8-8-8-------------10-10-10-10-10-10-10------------------|

Y el Ave real…
e|-------------------------------------------------|
B|-------------------------------------------------|
G|-------------------------------------------------|
D|-5/7---------------------5/7---------------------|
A|-3/5-0-0-0-0-0-0-0-0-0-0-3/5-0-0-0-0-0-0-0-0-0-0-|
D|-----0-0-0-0-0-0-0-0-0-0-----0-0-0-0-0-0-0-0-0-0-|
                                          Ausencia y
e|-------------------------------------------------|
B|-------------------------------------------------|
G|-------------------------------------------------|
D|-5/7---------------------5/7---------------------|
A|-3/5-0-0-0-0-0-0-0-0-0-0-3/5-0-0-0-0-0-0-0-0-0-0-|
D|-----0-0-0-0-0-0-0-0-0-0-----0-0-0-0-0-0-0-0-0-0-|

olviiiido…
e|--------------------------------------------------------------|
B|--------------------------------------------------------------|
G|--------------------------------------------------------------|
D|------------8-8-8-8-8-8----------------------10-10-10-10-10-10|
A|--------------------------------------------------------------|
D|8-8-8-8-8-8-------------10-10-10-10-10-10-10------------------|
                 Así incomprendido
e|----------------------------------------|
B|----------------------------------------|
G|----------------------------------------|
D|---------------0----------8----------7--|
A|---------------0----------8----------7--|
D|-8-7-5-10-8-7--0----------8----------7--|
                 Corcel herido
e|----------------------------------------|
B|----------------------------------------|
G|----------------------------------------|
D|---------------0----------8----------10-|
A|---------------0----------8----------10-|
D|-8-7-5-10-8-7--0----------8----------10-|

Yace el hombre de hoy…
e|---------------------------------|
B|---------------------------------|
G|---------------------------------|
D|-10----10----12----12----9----12-|
A|-8-----8-----10----10----7----10-|
D|---------------------------------|

Se nace perdiendo…
e|-------------------------------------------------|
B|-------------------------------------------------|
G|-------------------------------------------------|
D|-5/7---------------------5/7---------------------|
A|-3/5-0-0-0-0-0-0-0-0-0-0-3/5-0-0-0-0-0-0-0-0-0-0-|
D|-----0-0-0-0-0-0-0-0-0-0-----0-0-0-0-0-0-0-0-0-0-|
                                          Que guarda
e|-------------------------------------------------|
B|-------------------------------------------------|
G|-------------------------------------------------|
D|-5/7---------------------5/7---------------------|
A|-3/5-0-0-0-0-0-0-0-0-0-0-3/5-0-0-0-0-0-0-0-0-0-0-|
D|-----0-0-0-0-0-0-0-0-0-0-----0-0-0-0-0-0-0-0-0-0-|

Distaaaancia…
e|--------------------------------------------------------------|
B|--------------------------------------------------------------|
G|--------------------------------------------------------------|
D|------------8-8-8-8-8-8----------------------10-10-10-10-10-10|
A|--------------------------------------------------------------|
D|8-8-8-8-8-8-------------10-10-10-10-10-10-10------------------|

El lleva en su afán…
e|-------------------------------------------------|
B|-------------------------------------------------|
G|-------------------------------------------------|
D|-5/7---------------------5/7---------------------|
A|-3/5-0-0-0-0-0-0-0-0-0-0-3/5-0-0-0-0-0-0-0-0-0-0-|
D|-----0-0-0-0-0-0-0-0-0-0-----0-0-0-0-0-0-0-0-0-0-|
                                         Palabras que
e|-------------------------------------------------|
B|-------------------------------------------------|
G|-------------------------------------------------|
D|-5/7---------------------5/7---------------------|
A|-3/5-0-0-0-0-0-0-0-0-0-0-3/5-0-0-0-0-0-0-0-0-0-0-|
D|-----0-0-0-0-0-0-0-0-0-0-----0-0-0-0-0-0-0-0-0-0-|

Saaaangran…
e|--------------------------------------------------------------|
B|--------------------------------------------------------------|
G|--------------------------------------------------------------|
D|------------8-8-8-8-8-8----------------------10-10-10-10-10-10|
A|--------------------------------------------------------------|
D|8-8-8-8-8-8-------------10-10-10-10-10-10-10------------------|
                 Así incomprendido
e|----------------------------------------|
B|----------------------------------------|
G|----------------------------------------|
D|---------------0----------8----------7--|
A|---------------0----------8----------7--|
D|-8-7-5-10-8-7--0----------8----------7--|
                 Corcel herido
e|----------------------------------------|
B|----------------------------------------|
G|----------------------------------------|
D|---------------0----------8----------10-|
A|---------------0----------8----------10-|
D|-8-7-5-10-8-7--0----------8----------10-|



Yace el hombre de hoy…
e|------------------------------------------------------------------|
B|------------------------------------------------------------------|
G|------------------------------------------------------------------|
D|-4-4-4-4-4-6-7-0-0-0-0-0-7-6-4-2-2-2-2-2-2-2-2-2-2-2-7-7-7-6-6-6--|
A|-4-4-4-4-4-6-7-0-0-0-0-0-7-6-4-2-2-2-2-2-2-2-2-2-2-2-7-7-7-6-6-6--|
D|-4-4-4-4-4-6-7-0-0-0-0-0-7-6-4-2-2-2-2-2-2-2-2-2-2-2-7-7-7-6-6-6--|

Quien Grita sin miedo…
e|------------------------------------------------------------------|
B|------------------------------------------------------------------|
G|------------------------------------------------------------------|
D|-4-4-4-4-4-6-7-0-0-0-0-0-7-6-4-2-2-2-2-2-2-2-2-2-2-2-7-7-7-6-6-6--|
A|-4-4-4-4-4-6-7-0-0-0-0-0-7-6-4-2-2-2-2-2-2-2-2-2-2-2-7-7-7-6-6-6--|
D|-4-4-4-4-4-6-7-0-0-0-0-0-7-6-4-2-2-2-2-2-2-2-2-2-2-2-7-7-7-6-6-6--|

Y vuela tan lejos…
e|------------------------------------------------------------------|
B|------------------------------------------------------------------|
G|------------------------------------------------------------------|
D|-4-4-4-4-4-6-7-0-0-0-0-0-7-6-4-2-2-2-2-2-2-2-2-2-2-2-7-7-7-6-6-6--|
A|-4-4-4-4-4-6-7-0-0-0-0-0-7-6-4-2-2-2-2-2-2-2-2-2-2-2-7-7-7-6-6-6--|
D|-4-4-4-4-4-6-7-0-0-0-0-0-7-6-4-2-2-2-2-2-2-2-2-2-2-2-7-7-7-6-6-6--|

Quien vuela en silencio…
e|------------------------------------------------------------------|
B|------------------------------------------------------------------|
G|------------------------------------------------------------------|
D|-4-4-4-4-4-6-7-0-0-0-0-0-7-6-4-2-2-2-2-2-2-2-2-2-2-2-7-7-7-6-6-6--|
A|-4-4-4-4-4-6-7-0-0-0-0-0-7-6-4-2-2-2-2-2-2-2-2-2-2-2-7-7-7-6-6-6--|
D|-4-4-4-4-4-6-7-0-0-0-0-0-7-6-4-2-2-2-2-2-2-2-2-2-2-2-7-7-7-6-6-6--|

Y vuela Y vuela  ohhhh…
e|--------------------------------------------------|
B|--------------------------------------------------|
G|--------------------------------------------------|
D|-4-4-4-6-6-6-7-7-7-6-6-6--4-4-4-6-6-6-7-7-7-6-6-6-|
A|--------------------------------------------------|
D|--------------------------------------------------|

e|--------------------------------------------------|
B|--------------------------------------------------|
G|--------------------------------------------------|
D|-------6-6-6-7-7-7-6-6-6--------6-6-6-7-7-7-9-9-9-|
A|-7-7-7--------------------7-7-7-------------------|
D|--------------------------------------------------|
e|--------------------------------------------------|
B|--------------------------------------------------|
G|--------------------------------------------------|
D|-4-4-4-6-6-6-7-7-7-6-6-6--4-4-4-6-6-6-7-7-7-6-6-6-|
A|--------------------------------------------------|
D|--------------------------------------------------|

e|--------------------------------------------------|
B|--------------------------------------------------|
G|--------------------------------------------------|
D|-------6-6-6-7-7-7-6-6-6--------6-6-6-7-7-7-9-9-9-|
A|-7-7-7--------------------7-7-7-------------------|
D|--------------------------------------------------|

Solo De guitarra:
e|-----------------------------------------------------|
B|-----------------------------------------------------|
G|-11-12-11-12-11-12-11-9-8----------------------4-----|
D|--------------------------10-9------10-9-----5---5---|
A|-------------------------------------------5-------5-|
D|-------------------------------10-9------5-----------|

e|-------------------------------------------------------------|
B|----------------------12-------------------------------------|
G|-5-----4-------4---------------------------------------------|
D|---5-----5----------------9------------7---------------------|
A|-----5-----5------2----------7--9--10-----10--9--7--9--10--9-|
D|-------------------------------------------------------------|
                             full
e|-------------------------12------12-----12--------10----------|
B|-------------full--------------------12----12--10----10---7-10|
G|-------9----9----9---7----------------------------------9-----|
D|--------------------------------------------------------------|
A|--7-----------------------------------------------------------|
D|--------------------------------------------------------------|
                                                full
e|----------------------------------7--8--10--10---7------------|
B|------------------------7--8--10--------------------10--8--8--|
G|-9----------------7--9----------------------------------------|
D|--------7--9--10----------------------------------------------|
A|--------------------------------------------------------------|
D|--------------------------------------------------------------|

e|-14-12-11-12-14-12-11-12-14-12-11-12-14-12-11-12-14-12-11-12-14|
B|---------------------------------------------------------------|
G|---------------------------------------------------------------|
D|---------------------------------------------------------------|
A|---------------------------------------------------------------|
D|---------------------------------------------------------------|

e|-14-12-11-12-14-12-11----------11-12-14-12-11----------------11|
B|----------------------13-12-13----------------13-12----12-13---|
G|----------------------------------------------------14---------|
D|---------------------------------------------------------------|
A|---------------------------------------------------------------|
D|---------------------------------------------------------------|

e|-12-11---------------------------------------------------------|
B|-------13-12----------------------12-13-12---------------------|
G|-------------14-12-11----11-12-14----------14-12-11-------11-12|
D|----------------------14----------------------------14-13------|
A|---------------------------------------------------------------|
D|---------------------------------------------------------------|

E|-------------------------------------------------------------|
B|-------------------------------------------------------------|
G|-14-12----------------11-------------------------------------|
D|-------14-13-11-13-14----14-13-11-13-14-13-11----------------|
A|----------------------------------------------14-12-11-12-11-|
D|-------------------------------------------------------------|

E|--------------------------------------------------------------|
B|--------------------------------------------------------------|
G|--------------------------------------------------------------|
D|--------------------------------------------------------------|
A|--------------------------------------------------------------|
D|-14-13-11-13-14-13-11-19-7-9-7-9-7-11-7-9-7-9-11-9-11-12-11-12|

E|---------------------------------------------------------|
B|---------------------------------------------------------|
G|---------------------------------------------------------|
D|---------------------------------------12-14-12-14-12-14-|
A|---------11----11-12-11-12-14-11-12-14-------------------|
D|14-12-14----14-------------------------------------------|

e|---full----------------------------------full--full---full-|
B|-12-------full--full-------------------12----12-----13-----|
G|-14-----14----14----14----14----12-----14----14-----15-----|
D|--------------------------------15-------------------------|
A|-----------------------------------------------------------|
D|-----------------------------------------------------------|

e|---full--full--full--| Fin del solo
B|-14----15----16------|
G|-16----17----18------|
D|---------------------|
A|---------------------|
D|---------------------|

Puente:

E|-----------------------------------------------------------|
B|-----------------------------------------------------------|
G|-----------------------------------------------------------|
D|-----------------------------------------------------------|
A|-9---------9---------9---------9-10-7-9---------9---------9|
D|-9-9-9-9-9-9-9-9-9-9-9-9-9-9-9-9-10-7-9-9-9-9-9-9-9-9-9-9-9|

E|-----------------------------------------------------------------|
B|-----------------------------------------------------------------|
G|-----------------------------------------------------------------|
D|-----------------------------------------------------------------|
A|---------9-10-7-5---------5---------5---------5-10-7-9---------9-|
D|-9-9-9-9-9-10-7-5-5-5-5-5-5-5-5-5-5-5-5-5-5-5-5-10-7-9-9-9-9-9-9-|

E|-----------------------------------------------------------------|
B|-----------------------------------------------------------------|
G|-----------------------------------------------------------------|
D|-------------------9---------------------------------------------|
A|---------9---------9---------2---------2---------2---------2-3-0-|
D|-9-9-9-9-9-9-9-9-9-9-9-9-9-9-2-2-2-2-2-2-2-2-2-2-2-2-2-2-2-2-3-0-|

E|-----------------------------------------------------------|
B|-----------------------------------------------------------|
G|-----------------------------------------------------------|
D|-------------------------------------5---------5---------5-|
A|-2---------2---------2---------2-3-0-3-3-3-3-3-3-3-3-3-3-3-|
D|-2-2-2-2-2-2-2-2-2-2-2-2-2-2-2-2-3-0-----------------------|

E|------------------------------------------------|
B|------------------------------------------------|
G|------------------------------------------------|
D|---------5--------------------------------------|
A|-3-3-3-3-3--3-0-2---------2---------2---------2-|
D|------------3-0-2-2-2-2-2-2-2-2-2-2-2-2-2-2-2-2-|



Quien Grita sin miedo…
e|------------------------------------------------------------------|
B|------------------------------------------------------------------|
G|------------------------------------------------------------------|
D|-4-4-4-4-4-6-7-0-0-0-0-0-7-6-4-2-2-2-2-2-2-2-2-2-2-2-7-7-7-6-6-6--|
A|-4-4-4-4-4-6-7-0-0-0-0-0-7-6-4-2-2-2-2-2-2-2-2-2-2-2-7-7-7-6-6-6--|
D|-4-4-4-4-4-6-7-0-0-0-0-0-7-6-4-2-2-2-2-2-2-2-2-2-2-2-7-7-7-6-6-6--|

Y vuela tan lejos…
e|------------------------------------------------------------------|
B|------------------------------------------------------------------|
G|------------------------------------------------------------------|
D|-4-4-4-4-4-6-7-0-0-0-0-0-7-6-4-2-2-2-2-2-2-2-2-2-2-2-7-7-7-6-6-6--|
A|-4-4-4-4-4-6-7-0-0-0-0-0-7-6-4-2-2-2-2-2-2-2-2-2-2-2-7-7-7-6-6-6--|
D|-4-4-4-4-4-6-7-0-0-0-0-0-7-6-4-2-2-2-2-2-2-2-2-2-2-2-7-7-7-6-6-6--|

Quien vuela en silencio…
e|------------------------------------------------------------------|
B|------------------------------------------------------------------|
G|------------------------------------------------------------------|
D|-4-4-4-4-4-6-7-0-0-0-0-0-7-6-4-2-2-2-2-2-2-2-2-2-2-2-7-7-7-6-6-6--|
A|-4-4-4-4-4-6-7-0-0-0-0-0-7-6-4-2-2-2-2-2-2-2-2-2-2-2-7-7-7-6-6-6--|
D|-4-4-4-4-4-6-7-0-0-0-0-0-7-6-4-2-2-2-2-2-2-2-2-2-2-2-7-7-7-6-6-6--|

Y vuela Y vuela no importa la ira del viento
e|------------------------------------------------------------------|
B|------------------------------------------------------------------|
G|------------------------------------------------------------------|
D|-4-4-4-4-4-6-7-0-0-0-0-0-7-6-4-2-2-2-2-2-2-2-2-2-2-2-7-7-7-6-6-6--|
A|-4-4-4-4-4-6-7-0-0-0-0-0-7-6-4-2-2-2-2-2-2-2-2-2-2-2-7-7-7-6-6-6--|
D|-4-4-4-4-4-6-7-0-0-0-0-0-7-6-4-2-2-2-2-2-2-2-2-2-2-2-7-7-7-6-6-6--|

Y vuela y vuela ohh…
e|--------------------------------------------------|
B|--------------------------------------------------|
G|--------------------------------------------------|
D|-4-4-4-6-6-6-7-7-7-6-6-6--4-4-4-6-6-6-7-7-7-6-6-6-|
A|--------------------------------------------------|
D|--------------------------------------------------|

e|--------------------------------------------------|
B|--------------------------------------------------|
G|--------------------------------------------------|
D|-------6-6-6-7-7-7-6-6-6--------6-6-6-7-7-7-9-9-9-|
A|-7-7-7--------------------7-7-7-------------------|
D|--------------------------------------------------|
No importa la ira del vieeeeeeeennnnto…
e|--------------------------------------------------|
B|--------------------------------------------------|
G|--------------------------------------------------|
D|-4-4-4-6-6-6-7-7-7-6-6-6--4-4-4-6-6-6-7-7-7-6-6-6-|
A|--------------------------------------------------|
D|--------------------------------------------------|

e|--------------------------------------------------|
B|--------------------------------------------------|
G|--------------------------------------------------|
D|-------6-6-6-7-7-7-6-6-6--------6-6-6-7-7-7-9-9-9-|
A|-7-7-7--------------------7-7-7-------------------|
D|--------------------------------------------------|

e|--------------------------------------------------|
B|--------------------------------------------------|
G|--------------------------------------------------|
D|-4-4-4-6-6-6-7-7-7-6-6-6--4-4-4-6-6-6-7-7-7-6-6-6-|
A|--------------------------------------------------|
D|--------------------------------------------------|

e|-----------------------------------------------------|
B|-----------------------------------------------------|
G|-----------------------------------------------------|
D|-------6-6-6-7-7-7-6-6-6--------6-6-6-7-7-7-9-9-9--4-|
A|-7-7-7--------------------7-7-7--------------------4-|
D|---------------------------------------------------4-|

Fin

Bueno pues súper completísima para su deleite
Cualquier comentario kodama456@gmail.com . Gracias

Que viva el Titán * siempre





Calificar esta versión:
Aviso: Este fichero es trabajo propio de su transcriptor y representa su interpretación personal de la canción. El material contenido en esta página es para exclusivo uso privado, por lo que se prohibe su reproducción o retransmisión, así como su uso para fines comerciales.