Hijos Del Sur, Kraken (tablatura)

Autor: Anónimo | 22030 visualizaciones



La verdad pido disculpas alos fans de Kraken por la pesima
versión que estaba aqui, Ahora para su deleite
ha sido corregida en todos los aspectos Espero que les guste

Intro:

e|---------------------------|
B|---------------------------|
G|---------------------------|
D|-5/7--5/7--7-7-7-5-5-------|
A|-3/5--3/5------------7-5-0-|
E|---------------------------|

Riff Básico:

e|-------------------------------------------|
B|-------------------------------------------|
G|-------------------------------------------|
D|-7------------------7----------------------|
A|-5-------------8/10/5------------------5-3-|
E|---0-0-0-0-0-0-6/8---0-0-0-0-0-0-5-3-------|

e|-------------------------------------------|
B|-------------------------------------------|
G|-------------------------------------------|
D|-7------------------7----------------5-3---|
A|-5-------------8/10/5-------------5-3------|
E|---0-0-0-0-0-0-6/8---0-0-0-0-0-0-----------|

Quiero gritar latino soy...

e|-------------------------------------------|
B|-------------------------------------------|
G|-------------------------------------------|
D|-7------------------7----------------------|
A|-5-------------8/10/5------------------5-3-|
E|---0-0-0-0-0-0-6/8---0-0-0-0-0-0-5-3-------|

e|-------------------------------------------|
B|-------------------------------------------|
G|-------------------------------------------|
D|-7------------------7----------------5-3---|
A|-5-------------8/10/5-------------5-3------|
E|---0-0-0-0-0-0-6/8---0-0-0-0-0-0-----------|

Nacimos hijos del sol...

e|-------------------|
B|-------------------|
G|-------------------|
A|-6---8----6---8----|
D|-8---10---8---10---|
E|-------------------|

Como frutos que gimen...

e|-------------------------------------------|
B|-------------------------------------------|
G|-------------------------------------------|
D|-7------------------7----------------------|
A|-5-------------8/10/5------------------5-3-|
E|---0-0-0-0-0-0-6/8---0-0-0-0-0-0-5-3-------|

e|-------------------------------------------|
B|-------------------------------------------|
G|-------------------------------------------|
D|-7------------------7----------------5-3---|
A|-5-------------8/10/5-------------5-3------|
E|---0-0-0-0-0-0-6/8---0-0-0-0-0-0-----------|

Es la verdad latino soy...

e|-------------------------------------------|
B|-------------------------------------------|
G|-------------------------------------------|
D|-7------------------7----------------------|
A|-5-------------8/10/5------------------5-3-|
E|---0-0-0-0-0-0-6/8---0-0-0-0-0-0-5-3-------|

e|-------------------------------------------|
B|-------------------------------------------|
G|-------------------------------------------|
D|-7------------------7----------------5-3---|
A|-5-------------8/10/5-------------5-3------|
E|---0-0-0-0-0-0-6/8---0-0-0-0-0-0-----------|

Yo nunca ignoro el valor...

e|-------------------|
B|-------------------|
G|-------------------|
A|-6---8----6---8----|
D|-8---10---8---10---|
E|-------------------|

Libre!!     Libre!!

e|--------------------------------------|
B|--------------------------------------|
G|--------------------------------------|
D|--------------------------------------|
A|---------8-7-------10-8-------8-7-8-7-|
E|-0-0-0-0-6-5-0-0-0-8--6-0-0-0-6-5-6-5-|


A la tercera vez cambia el tono, dice
Sentir ser libre...

e|--------------------------------------|
B|--------------------------------------|
G|--------------------------------------|
D|---------8-7-------10-8-------8-7-8-7-|
A|-0-0-0-0-6-5-0-0-0-8--6-0-0-0-6-5-6-5-|
E|--------------------------------------|

Al segundo Sentir ser libre...

e|---------------------------------|
B|---------------------------------|
G|---------------------------------|
D|-7------------------7------------|
A|-5-------------8/10/5------------|
E|---0-0-0-0-0-0-6/8---0-0-0-0-0-0-|

e|---------------------------------|
B|---------------------------------|
G|---------------------------------|
D|-7------------------7------------|
A|-5-------------8/10/5------------|
E|---0-0-0-0-0-0-6/8---0-0-0-0-0-0-|

Quiero gritar latino soy...

e|-------------------------------------------|
B|-------------------------------------------|
G|-------------------------------------------|
D|-7------------------7----------------------|
A|-5-------------8/10/5------------------5-3-|
E|---0-0-0-0-0-0-6/8---0-0-0-0-0-0-5-3-------|

e|-------------------------------------------|
B|-------------------------------------------|
G|-------------------------------------------|
D|-7------------------7----------------5-3---|
A|-5-------------8/10/5-------------5-3------|
E|---0-0-0-0-0-0-6/8---0-0-0-0-0-0-----------|


Ese que aún sobrevive...

e|---------------------------------|
B|---------------------------------|
G|---------------------------------|
D|-7------------------7------------|
A|-5-------------8/10/5------------|
E|---0-0-0-0-0-0-6/8---0-0-0-0-0-0-|

e|---------------------------------|
B|---------------------------------|
G|---------------------------------|
D|-7------------------7------------|
A|-5-------------8/10/5------------|
E|---0-0-0-0-0-0-6/8---0-0-0-0-0-0-|

Si este pasado pesa...

e|-----------------------------------------|
B|-----------------------------------------|
G|-----------------------------------------|
D|-----------------------------------5-7-8-|
A|---------------8-8-8---------------------|
E|-5-5-5-5-5-5-5-------5-5-5-5-5-5-5-------|

Como ignorar cunato valor posee la vida lucha y grita...

e|-------------------------------|
B|-------------------------------|
G|-------------------------------|
D|-2---5---7---9---2---5---7---9-|
A|-0---3---5---7---0---3---5---7-|
E|-------------------------------|

Latino, Latin, Latinoamericano...

e|-----------------------------------------|
B|-----------------------------------------|
G|-----------------------------------------|
D|-----------------------------------5-7-8-|
A|---------------8-8-8---------------------|
E|-5-5-5-5-5-5-5-------5-5-5-5-5-5-5-------|

Como ignorar cunato valor posee la vida dejarla para nunca !!!

e|----------------------------------------------------------|
B|----------------------------------------------------------|
G|----------------------------------------------------------|
D|-2--5--7--9--2--5--7--9--2--5--5--5--5/9--2--5--5--5--5/7-|
A|-0--3--5--7--0--3--5--7--0--3--3--5--3/7--0--3--3--3--3/5-|
E|----------------------------------------------------------|

e|-----------------------------------------|
B|-----------------------------------------|
G|-----------------------------------------|
D|-----------------------------------5-7-8-|
A|---------------8-8-8---------------------|
E|-5-5-5-5-5-5-5-------5-5-5-5-5-5-5-------|

e|-----------------------------------------|
B|-----------------------------------------|
G|-----------------------------------------|
D|-----------------------------------5-7-8-|
A|---------------8-8-8---------------------|
E|-5-5-5-5-5-5-5-------5-5-5-5-5-5-5-------|

Latino, Latino, Latinoamericano...

e|-----------------------------------------|
B|-----------------------------------------|
G|-----------------------------------------|
D|-----------------------------------5-7-8-|
A|---------------8-8-8---------------------|
E|-5-5-5-5-5-5-5-------5-5-5-5-5-5-5-------|

Como ignorar cunato valor posee la vida...

e|-------------------------------|
B|-------------------------------|
G|-------------------------------|
D|-2---5---7---9---0---5---7---9-|
A|-0---3---5---7---0---3---5---7-|
E|-------------------------------|

Si más que todo soy, Si más que todo soy...

e|-----------------|
B|-----------------|
G|-----------------|
D|--9--11--12--14--|
A|--7--9---10--12--|
E|-----------------|

Latino!!!

e|-------------|
B|-------------|
G|-------------|
D|--10-10-10---|
A|--12-12-12---|
E|-------------|


Tambien pueden finalizar asi:

Latino!!!

e|---------|
B|---------|
G|---------|
D|---------|
A|--5-5-5--|
E|--3-3-3--|

Igual, las dos maneras son Sol.

La verdad devo dar credito a David Jaramillo Restrepo
(davisinho5@hotmail.com)Por sus mejoras, pero, decirle
tambien que deje de ser ladron y que reconozca que me plagio
parte de mi anterior tab, lo cual era evidente.

No Siendo más  Me despido.

QUE VIVA EL TITAN * SIEMPRE





Calificar esta versión:
Aviso: Este fichero es trabajo propio de su transcriptor y representa su interpretación personal de la canción. El material contenido en esta página es para exclusivo uso privado, por lo que se prohibe su reproducción o retransmisión, así como su uso para fines comerciales.