Escudo Y Espada, Kraken (tablatura)

Autor: Andres Gonzalez Puentes | 18237 visualizaciones



E|-17--13-15-17---13-15-17--13-15-17--13-15-17--13-15-17-|
B|-------------------------------------------------------|
G|-------------------------------------------------------|
D|-------------------------------------------------------|
A|-------------------------------------------------------|
E|-------------------------------------------------------|

E|-17-15-13-----------------------------------------|
B|----------17-15-13--------------------------------|
G|-------------------16-14-12-----------------------|
D|----------------------------15-14-12--------------|
A|-------------------------------------15-14-12-----|
E|----------------------------------------------15--|

E|-------------------------------------13-15-17-15-13-|
B|----------------------------13-15-17----------------|
G|-------------------12-14-16-------------------------|
D|----------12-14-15----------------------------------|
A|-12-14-15-------------------------------------------|
E|----------------------------------------------------|

E|----------------------------------13---------13~~---|
B|-17-15-13-15-17-15-13-15-13-15-17----17-15~~--------|
G|----------------------------------------------------|
D|----------------------------------------------------|
A|----------------------------------------------------|
E|----------------------------------------------------|

E|---12p13---12p13---12p13---12p13---12p13---12p13---12p13--|
B|-15------15------15------15------15------15------15-------|
G|----------------------------------------------------------|
D|----------------------------------------------------------| X2
A|----------------------------------------------------------|
E|----------------------------------------------------------|

E|---12-13----13-13-^------------------------------------------------|
B|-15------15-------13--13-------------------------------------------|
G|-------------------------14-12-14-------12-------------------------|
D|----------------------------------15-14----15-14-12----------------|
A|----------------------------------------------------15-14-12-------|
E|-------------------------------------------------------------15-13-|

E|-------------------------------------------------------------------|
B|-------------------------------------------------------------------|
G|----------------------------12----------------12-------------------|
D|-------------------12-14-15----15-14-12-14-15----14-12-15-14-12-15-|
A|----------12-14-15-------------------------------------------------|
E|-12-13-15----------------------------------------------------------|

E|-----------------------------------------------------------------------|
B|--------------------------------------------------------12-13-12-------|
G|--------------------------------------------------12-14----------14-12-|
D|--14-12----------------------------------12-14-15----------------------|
A|--------15-14-12----------------12-14-15-------------------------------|
E|----------------15-13-12-13-15-----------------------------------------|

E|-----------------------------------------------------------------------|
B|-----------------------------------------------------------------------|
G|-----------------------------12-14-12----------------------------------|
D|--15-14-12----------12-14-15----------15-14-12-------------------------|
A|-----------15-14-15----------------------------15-14-12----------------|
E|--------------------------------------------------------15-12-13-12-15-|

E|-------------|---------------------------------------------------------|
B|-------------|---------------------------------------------------------|
G|-------------|-T------T-------T------T------T------T-----T------T------|
D|----------12-|-10-7h3-10-7h3-10-7h3-10-7h3-10-7h3-10-7h3-10-7h3-10-7h3-|
A|-12-14-15----|---------------------------------------------------------|
E|-------------|---------------------------------------------------------|

E|-------------------------------------------------------|
B|-T-----T-----T-----T-----T-----T-----T-----T-----T-----|
G|-9-5h0-9-5h0-9-5h0-9-5h0-9-5h0-9-5h0-9-5h0-9-5h0-9-5h0-|
D|-------------------------------------------------------|
A|-------------------------------------------------------|
E|-------------------------------------------------------|

E|-------------------------------------------------------------------|
B|-------------------------------------------------------------------|
G|-T------T-------T------T------T------T-----T------T----------------|
D|-10-7h3-10-7h3-10-7h3-10-7h3-10-7h3-10-7h3-10-7h3-10-7h3-7---5--7~-|
A|-----------------------------------------------------------8-------|
E|-------------------------------------------------------------------|

E|---------------------------------------------------------|
B|---------------------------------------------------------|
G|-T------T-------T------T------T------T-----T------T------|
D|-10-7h3-10-7h3-10-7h3-10-7h3-10-7h3-10-7h3-10-7h3-10-7h3-|
A|---------------------------------------------------------|
E|---------------------------------------------------------|

E|-------------------------------------------------------|
B|-T-----T-----T-----T-----T-----T-----T-----T-----T-----|
G|-9-5h0-9-5h0-9-5h0-9-5h0-9-5h0-9-5h0-9-5h0-9-5h0-9-5h0-|
D|-------------------------------------------------------|
A|-------------------------------------------------------|
E|-------------------------------------------------------|
                                                                     ^
E|------------------------------------------------------------------15-|
B|---------------------------------------------------------------------|
G|-T------T-------T------T------T------T-------------------------------|
D|-10-7h3-10-7h3-10-7h3-10-7h3-10-7h3-10-7h3--10-9-7-10-9-7--10-9-7----|
A|---------------------------------------------------------------------|
E|---------------------------------------------------------------------|





Comentarios del colaborador: Hay esta lo mejor de karaken espero opiniones

Calificar esta versión:
Aviso: Este fichero es trabajo propio de su transcriptor y representa su interpretación personal de la canción. El material contenido en esta página es para exclusivo uso privado, por lo que se prohibe su reproducción o retransmisión, así como su uso para fines comerciales.