Coming Undone (acústico ), Korn (tablatura)

Autor: alejandrocoria | 45768 visualizaciones

  
Intro:  (A D G C F a d) 



d|---------------------------------| 
a|---------------------------------| 
F|---------------------------------| 
C|---------------------------------| 
G|-222-2-222-2-222-2-222-2-222-2-2-| 
D|-000-0-000-0-000-0-000-0-000-0-0-| 
A|---------------------------------| 


d|---------------------------------| 
a|---------------------------------| 
F|---------------------------------| 
C|---------------------------------| 
G|-222-2-222-2-222-2-222-2-222-2-2-| 
D|-000-0-000-0-000-0-000-0-000-0-0-| 
A|---------------------------------| 


d|---------------------------|----------------------| 
a|---------------------------|----------------------| 
F|-9-9-----------------------|-9-9---------------15-| 
C|-9-9-10-10-------------8~~-|-9-9-10-10---------15-| 
G|-7-7-10-10-10-10-7-(7)-8~~-|-7-7-10-10-10-10-7-13-| 
D|----- 8- 8-10-10-7-(7)-6~~-|----- 8- 8-10-10-7-13-| 
A|----------- 8- 8-5-(5)-----|----------- 8- 8-5----| 

d|--------------------|-----------------| 
a|--------------------|-----------------| 
F|--------------------|-----------------| 
C|-14~~---------------|-14~~------------| 
G|-14~~-7-7-8-8-1110-|-14~~-7-7-8-8-5~-| 
D|-12~~-7-7-8-8-1110-|-12~~-7-7-8-8-5~-| 
A|------5-5-6-6- 9 8-|------5-5-6-6-3~-| 

Verso: 
d|---------------------------------| 
a|---------------------------------| 
F|---------------------------------| 
C|---------------------------------| 
G|-222-2-222-2-222-2-222-2-222-2-2-| 
D|-000-0-000-0-000-0-000-0-000-0-0-| 
A|---------------------------------| 

Pre-Refrão: 
d|---------------------------|----------------------| 
a|---------------------------|----------------------| 
F|-9-9-----------------------|-9-9---------------15-| 
C|-9-9-10-10-------------8~~-|-9-9-10-10---------15-| 
G|-7-7-10-10-10-10-7-(7)-8~~-|-7-7-10-10-10-10-7-13-| 
D|----- 8- 8-10-10-7-(7)-6~~-|----- 8- 8-10-10-7-13-| 
A|----------- 8- 8-5-(5)-----|----------- 8- 8-5----| 

Refrão: 
d|--------------------|-----------------| 
a|--------------------|-----------------| 
F|--------------------|-----------------| 
C|-14~~---------------|-14~~------------| 
G|-14~~-7-7-8-8-1110-|-14~~-7-7-8-8-5~-| 
D|-12~~-7-7-8-8-1110-|-12~~-7-7-8-8-5~-| 
A|------5-5-6-6- 9 8-|------5-5-6-6-3~-| 

Ponte 1: 
d|---------------------------| 
a|---------------------------| 
F|---------------------------| 
C|-14\\-9-9-10-10-12-12----| 
G|-14\\-9-9-10-10-12-12----| 
D|-12\\-7-7- 8- 8-10-10-8-9| 
A|---------------------------| 


d|--------------------| 
a|--------------------| 
F|--------------------| 
C|--------------------| 
G|--------------------| 
D|--------------------| 
A|-5^~~5~4~4-43~2~-| 

 
d|--------------------|-----------------| 
a|--------------------|-----------------| 
F|--------------------|-----------------| 
C|-14~~---------------|-14~~------------| 
G|-14~~-7-7-8-8-1110-|-14~~-7-7-8-8-5~-| 
D|-12~~-7-7-8-8-1110-|-12~~-7-7-8-8-5~-| 
A|------5-5-6-6- 9 8-|------5-5-6-6-3~-| 


d|--------------------|-----------------| 
a|--------------------|-----------------| 
F|--------------------|-----------------| 
C|--------------------|-14~~------------| 
G|------7-7-8-8-1110-|-14~~-7-7-8-8-5~-| 
D|------7-7-8-8-1110-|-12~~-7-7-8-8-5~-| 
A|------5-5-6-6- 9 8-|------5-5-6-6-3~-| 


d|--------------------|-----------------| 
a|--------------------|-----------------| 
F|--------------------|-----------------| 
C|-14~~---------------|-14~~------------| 
G|-14~~-7-7-8-8-1110-|-14~~-7-7-8-8-5~-| 
D|-12~~-7-7-8-8-1110-|-12~~-7-7-8-8-5~-| 
A|------5-5-6-6- 9 8-|------5-5-6-6-3~-| 

 
d|----| 
a|----| 
F|----| 
C|----| 
G|-7-8| 
D|-7-8| 
A|-5-6| 

muy buen temaa acustico tbb
cualquier consulta en alejandrocoria_24@live.com.ar
 
Calificar esta versión:
Aviso: Este fichero es trabajo propio de su transcriptor y representa su interpretación personal de la canción. El material contenido en esta página es para exclusivo uso privado, por lo que se prohibe su reproducción o retransmisión, así como su uso para fines comerciales.