Coming Undone, Korn (tablatura)

Autor: yoni5 | 43567 visualizaciones

|---------------------------------------------------------------------------|
|---------------------------------------------------------------------------|
|---------------------------------------------------------------------------|
|---------------------------------------------------------------------------|
|---------------------------------------------------------------------------|
|---------------------------------------------------------------------------|
|-5-5-5--5--5-5-5--5--5-5-5--5--5-5-5--5--5-5-5--5--5-5-5--5--5-5-5--5--5-5-|
|------|
|------|
|------|
|------|
|------|
|------|
|-5--5-|
Verse
|---------------------------------------------------------------------------|
|---------------------------------------------------------------------------|
|---------------------------------------------------------------------------|
|---------------------------------------------------------------------------|
|---------------------------------------------------------------------------|
|---------------------------------------------------------------------------|
|-5-5-5--5--5-5-5--5--5-5-5--5--5-5-5--5--5-5-5--5--5-5-5--5--5-5-5--5--5-5-|
|------|
|------|
|------|
|------|
|------|
|------|
|-5--5-|(x2)
Pre-Chorus
|-----------------------------------------------------------|
|-----------------------------------------------------------|
|-----------------------------------------------------------|
|-9-9--------------------------9-9--------------------------|
|-7-7--10-10------------8------7-7--10-10-------------7w----|
|-------8--8--10-10-7-7-6w-----------8--8--10-10-7-7--------|
|--------------8--8-5-5---------------------8--8-5-5--------|(x2)
Chorus
|--------------------|
|--------------------|
|--------------------|
|-14~----------------|
|--x--7-7--8-8--10s8-|
|-12~-7-7--8-8--10s8-|
|-----5-5--6-6---8s6-|(x8)
Fill
|--------------------|
|--------------------|
|--------------------|
|--------------------|
|--------------------|
|-7-7-7-7----7-7-7-7-|
|-5-5-5-5----5-5-5-5-|
Verse
|---------------------------------------------------------------------------|
|---------------------------------------------------------------------------|
|---------------------------------------------------------------------------|
|---------------------------------------------------------------------------|
|---------------------------------------------------------------------------|
|---------------------------------------------------------------------------|
|-5-5-5--5--5-5-5--5--5-5-5--5--5-5-5--5--5-5-5--5--5-5-5--5--5-5-5--5--5-5-|
|------|
|------|
|------|
|------|
|------|
|------|
|-5--5-|(x2)
Pre-Chorus
|-----------------------------------------------------------|
|-----------------------------------------------------------|
|-----------------------------------------------------------|
|-9-9--------------------------9-9--------------------------|
|-7-7--10-10------------8------7-7--10-10-------------7w----|(extend note)
|-------8--8--10-10-7-7-6w-----------8--8--10-10-7-7--------|
|--------------8--8-5-5---------------------8--8-5-5--------|(x2)
Chorus
|--------------------|
|--------------------|
|--------------------|
|-14~----------------|
|--x--7-7--8-8--10s8-|
|-12~-7-7--8-8--10s8-|
|-----5-5--6-6---8s6-|(x8)
Bridge
|-------------------------|
|-------------------------|
|-20~~--------------------|
|--x----9-9--10-10--12-12-|
|-18~~--9-9--10-10--12-12-|
|-------7-7---8--8--10-10-|
|-------------------------|(x4)
|-------------------------------------|
|-------------------------------------|
|-------------------------------------|
|-------------------9-9--10-10--12-12-|
|-------------------9-9--10-10--12-12-|
|-------------------7-7---8--8--10-10-|
|-5^-5-5-4-4-3-3-2--------------------|
|-----------------------------------|
|-----------------------------------|
|-----------------------------------|
|-----------------9-9--10-10--12-12-|
|-----------------9-9--10-10--12-12-|
|-----------------7-7---8--8--10-10-|
|--5-5-4-4-3-3-2--------------------|(x2)
|-------------------------|
|-------------------------|
|-------------------------|
|-------------------------|
|-------------------------|
|-------------------------|
|--5-5-4-4-3-3-2----------|
Chorus
|--------------------|
|--------------------|
|--------------------|
|-14~----------------|
|--x--7-7--8-8--10s8-|
|-12~-7-7--8-8--10s8-|
|-----5-5--6-6---8s6-|(x8)
Outro
|-------|
|-------|
|-------|
|-------|
|-------|
|-------|
|-5(6)--|
Key:
(xN)=how many times
w=whammy bar
~=let ring
x=mute
s=slide
^=bend
n(N)=trill 1st note to second note
I'm pretty sure this is 100% but plz comment and i will update with fixes...

Comentarios del colaborador: este tema lo sakee de http://www.guitarmasta.net lo provee i keda bastante bien

Calificar esta versión:
Aviso: Este fichero es trabajo propio de su transcriptor y representa su interpretación personal de la canción. El material contenido en esta página es para exclusivo uso privado, por lo que se prohibe su reproducción o retransmisión, así como su uso para fines comerciales.