Children Of The Korn, Korn (tablatura)

Autor: alejandrocoria | 28512 visualizaciones

 

introo (A D G C F A D) acordes en 7ma

RIFF A  GTR.1 W/EFFECT 
||-14---15--------|---20--21--19-|--14---15-------|---20--21--19-| 
||----------------|--------------|----------------|--------------| 
||------------15--|--------------|------------15--|--------------| 
||----------------|--------------|----------------|--------------| 
||----------------|--------------|----------------|--------------| 
||----------------|--------------|----------------|--------------| 
||----------------|--------------|----------------|--------------| 
RIFF  GTR.2 W/EFFECT 
||-12--12---------|--------------|----------------|------12------| 
||---------11-----|--------------|----------------|--------------| 
||------------9-8-|-7--------7-8-|--9---------9-8-|--7-----------| 
||----------------|--------------|----------------|--------------| 
||----------------|--------------|----------------|--------------| 
||----------------|--------------|----------------|--------------| 
||----------------|--------------|----------------|--------------| 
coroo GTRS.1 & 2 
||---------------------------| 
||---------------------------| 
||---------------------------| 
||---------------------------| 
||--3--3--3-3-3-3--3-3-3-----| 
||--3--3--3-3-3-3--3-3-3-----| 
||--1--1--1-1-1-1--1-1-1--0--| 
Verso GTRS.1 & 2 con wawa
  C#5         C#5    C5          D5 
||------------------|-----------------| 
||--14-------15-14--|--13-------12----| GTR.2
||------------------|-----------------| 
||------------------|-----------------| 
||------------------|-----------------| 
||------------------|-----------------| 
||------------------|-----------------| 
VERSo 
  C#5                C5         D5 
||------------------|-------------15--| 
||--14-------15-14--|--13-------------| 
||------------------|----------12-----| 
||------------------|-----------------| 
||------------------|-----------------| 
||------------------|-----------------| 
||------------------|-----------------| 
Versoo 2 
  C#5               C5           D5 
||------------------|-----------------| 
||------------------|-----------------| 
||------------------|-----------------| 
||------------------|-----------------| 
||--4---------------|--3------------5-| 
||--4---------------|--3------------5-| 
||--2---------------|--1------------3-| 
RIFF C W/ y PEDAL     
    )                 ) 
||--16---(16)-14-16---16---(16)-14-16--| 
||-------------------------------------| 
||-------------------------------------| 
||-------------------------------------| 
||-------------------------------------| 
||-------------------------------------| 
||-------------------------------------| 
 
 
cualquier consulta en alejandrocoria_24@live.com.ar
 
Calificar esta versión:
Aviso: Este fichero es trabajo propio de su transcriptor y representa su interpretación personal de la canción. El material contenido en esta página es para exclusivo uso privado, por lo que se prohibe su reproducción o retransmisión, así como su uso para fines comerciales.