Another Brick In The Wall (cover Pink Floyd), Korn (tablatura)

Autor: xxblackxpinkxx | 20097 visualizaciones

'ANOTHER BRICK IN THE WALL Parts 1 2 and 3" - by Korn (cover de Pink Floyd)


Email y MSN: playing.the.angel_@hotmail.com


//Ésta canción la dividí en 4 partes para que sea más fácil.
Se van a dar los cambios.
Pero también dividí las 4 partes en otras categorías como "Versos" y "Quiebre" o "Conclusión"
Se supone que está para ser tocada por 3 personas (con una batería, mejor): Guitarra líder o principal, Guitarra segunda o rítmica y bajista.
Todos tienen que tocar su tablatura respectiva al mismo tiempo.
Es muy simple (quizas el solo no sea tanto para principiantes, pero...)
Ah! y si se lo preguntan, sí, lo saqué de oído.

==============================================================================
		(((PARTE 1: "The Hapiest days of our lives")))
//La canción empieza solo con el guitarrista líder y unos golpes de platillos de batería//



'Daddy's flown across the ocean...
Leaving just a- memory...
A snapshot in the- family album
Daddy, what else- did you leave for me...?'

GUITARRA LÍDER:
e|---------------------------------------------------------------------------
B|---------------------------------------------------------------------------
G|---------------------------------------------------------------------------
D|-------------------------------3-5-3---------------------------------------
A|-5-5-5-5-5-5-5-5-3-3-5-5-5-5-5-------5-5-5-5-5-5-5-5-5-5-5-5-5-5-5-5-5-5-5-
E|---------------------------------------------------------------------------
[repetir constantemente]





'Daddy, whatcha leave behind for me?!'

GUITARRA LÍDER:
e|------------------------------
B|------------------------------
G|------------------------------
D|-5-5-5-5-5-5-5-5-5-5-5-5-5-5--
A|------------------------------
E|------------------------------
[repetir constantemente]




GUITARRA LÍDER:
e|------------------------------
B|------------------------------
G|------------------------------
D|------------------------------
A|-5-5-5-5-5-5-5-5-5-5-5-5-5-5--
E|------------------------------
[repetir constantemente hasta:]






'All in all it was- just a brick in the wall
All in all it was- all just bricks in the wall'

GUITARRA LÍDER:
e|-------------------------------------------------
B|-------------------------------------------------
G|-------------------------------------------------
D|-3-3-3-3-3-3-3-----------------------------------
A|---------------3-3-3-3-3-3-3-3-5-5-5-5-5-5-5-5---
E|-------------------------------------------------


//Fin de la parte 1, la parte tranquila//

=============================================================
			(((((PART 2: O la parte principal))))

_______________________________________________-
"Versos":
//Ahora entra el bajista y el segundo guitarrista. Usen distorción y mucho volumen//
//El Segundo guitarrista puede tocar su tablatura respectiva (que aparece más abajo con su nombre) o tocar el acorde Dm (Re menor)//
//Especialmente, el bajista y el Segundo guitarrista, escuchen bien el ritmo de las guitarras distorcionadas, asi uds. lo
pueden tocar, no es difícil//
//Y si se dan cuenta, lo que hace el Guitarrista Líder es algo parecido a "hablar" lo que canta el cantante, prueben, 
se van a dar cuenta de lo que digo//


GUITARRA LÍDER:
e|---------------------------------------------------------------------------|				
B|---------------------------------------------------------------------------|
G|---------------------------------------------------------------------------|
D|---------------------------------------------------------------------------|
A|-5---7------8-----7----5----7-----8---7--------------------------------------------|
E|-5---7------8-----7----5----7-----8---7--------------------------------------------|
  'We  Don't  need  no,  e____du____cation!'



SEGUNDO GUITARRISTA (Tablatura 1):
e|-------------
B|-------------
G|-7-7-7--5--7-
D|-7-7-7--5--7-
A|-5-5-5--3--5-
E|-------------
[repetir mucho hasta el "Quiebre"]



BAJISTA (Tablatura 2):
G|-------------
D|--------------
A|-5-5-5--3--5---
E|---------------
[repetir mucho hasta el "Quiebre"]







GUITARRA LÍDER:
e|---------------------------------------------------------------------------|				
B|---------------------------------------------------------------------------|
G|---------------------------------------------------------------------------|
D|-0---2--------3----2-----0---------2--------3-------------------------------------|
A|-0---2--------3----2-----0---------2--------3---------------------------------------|
E|--------------------------------------------1-----------------------------------|
  'We  Don't   need  no,  thought____con____trols!'



//NOTE: El bajista sigue tocando la Tablatura 2 y el segundo guitarrista la Tablatura 2//



GUITARRA LÍDER:
e|-------------------------------------------
B|-------------------------------------------
G|-7----7----9----10----7---9-----10---9----
D|-7----7----9----10----7---9-----10---9-----
A|-5----5----7----8-----5---7-----8----7-----
E|-------------------------------------------
  'No-dark   sar-casm,  in  the class-romms!'


GUITARRA LÍDER:
e|-----------------------------------	
B|-----------------------------------
G|-----------------------------------
D|-----------------------------------
A|-5-----7----8-----7----5----7--8------
E|-5-----7----8-----7----5----7--8---------
  'Tea-cher Leave, them,Kids Al-one!'





____________________________________
"Quiebre":


'Hey, Teachers, leave those kids alone!!!!'

GUITARRA LÍDER:
e|--7--
B|--8--
G|--7--
D|-----
A|-----
E|-----
[repetir constantemente y rápido]


SEGUNDO GUITARRISTA:
e|------
B|------
G|--12--
D|--12--
A|--10--
E|------
[repetir constantemente y rápido]

BAJISTA:
G|------
D|------
A|--10--
E|------
[repetir constantemente y rápido]

//ahora el segundo guitarrista y el bajista tocan los Versos 2 veces más y el guitarrista lider se queda en silencio, 
y despues llega la Conclusión//



____________________________________
"Conclusion":


'All in all you're just a-nother brick in the wall
All in all you're just a-nother brick in the wall'


GUITARRA LÍDER:
e|-----------------------------
B|-----------------------------
G|----------------------------
D|------------------------------
A|-8--8----3--3----5--5--5--5--
E|-8--8----3--3----5--5--5--5--



SEGUNDO GUITARRISTA:
e|---------------------------
B|---------------------------
G|---------------------------
D|-10------5-------7-----7---
A|-8-------3-------5-----5---
E|--------------------------


BAJISTA:
G|---------------------------
D|---------------------------
A|-8-------3-------5-----5---
E|---------------------------


............................................................................................
"Coro de los pibitos":

GUITARRA LÍDER:
e|-------------------------------------------
B|-------------------------------------------
G|-7-----9-------10----9-----7---9----10---9-
D|-7-----9-------10----9-----7---9----10---9-
A|-------------------------------------------
E|-------------------------------------------
  'We   don't   need   no,   e___du___ca_tion...etc...'



SEGUNDO GUITARRISTA (Tablatura 1):
e|-----------------
B|--------------
G|-7-7-7--5--7--
D|-7-7-7--5--7---
A|-5-5-5--3--5--
E|----------------
[repetir mucho, hasta el "Quiebre"]



BAJISTA (Tablatura 2):
G|--------------
D|-------------
A|-5-5-5--3--5--
E|--------------
[repetir mucho, hasta el "Quiebre"]


//como notarán, ésta parte en que cantan los chiquitos, es casi igual a la otra parte, 
sigan usando esta tablatura por ésta parte, simplemente cambia la letra:
'(...)...We don't need no thought controls, no dark sarcasm in the classrook, teacher leave...(...)'//

_____________________________________________
"Quiebre:"


'Hey, Teachers, leave those kids alone!!!!'

GUITARRA LÍDER:
e|-----
B|-----
G|-12--
D|-12--
A|-----
E|-----
[repetir constantemente]


SEGUNDO GUITARRISTA:
e|-----
B|-----
G|--12-
D|--12-
A|--10-
E|-----
[repetir constantemente]
BAJISTA:
G|-----
D|-----
A|--10-
E|-----
[repetir constantemente]



//ahora el segundo guitarrista y el bajista tocan los Versos 2 veces más y el guitarrista lider se queda en silencio, 
y despues llega la Conclusión//
____________________________________
"Conclusion":
///tocar 2 veces//

'All in all you're just a-nother brick in the wall
All in all you're just a-nother brick in the wall'

GUITARRA LÍDER:
e|-----------------------------
B|-----------------------------
G|-----------------------------
D|-----------------------------
A|-8--8----3--3----5--5--5--5--
E|-8--8----3--3----5--5--5--5--



SEGUNDO GUITARRISTA:
e|----------------------------
B|----------------------------
G|----------------------------
D|-10------5-------7-----7----
A|-8-------3-------5-----5----
E|----------------------------


BAJISTA:
G|--------------------------
D|--------------------------
A|-8-------3-------5-----5--
E|--------------------------


_____________________________________
"Solo de Dave Gilmour":

//lo copie de ultimate-guitar.com, el solo me lo sé, pero era un poco largo para ponerlo todo//

GUITARRA LÍDER:
|-------------------------|-10------------------------------------|
|-13b15====(15)-(15)r-----|-10-10---10------x-13b15-(15)---13b17==|
|-------------------------|-10-10---10----------------------------|
|-------------------------|---------------------------------------|
|-------------------------|---------------------------------------|
|-------------------------|---------------------------------------|

|-------------------------------|
|-(17)r=(13)--(13)--13p10-------|
|-------------------------12----|
|-------------------------------|
|-------------------------------|
|-------------------------------|

|--------------------------------------------|-----------------------------|
|--------------------------------------------|---------10-------10---------|
|-12b14===(14)r(12)-----10p9----9-------12---|---------10-------10---------|
|---------------------x------12---10s12----x-|-12---12-------------12-12---|
|-------------------x------------------------|-----------------------------|
|--------------------------------------------|-----------------------------|

|--------------------------------------|
|-10-10---------10---10-----10---12-10-|
|-10-10---------10---10-----10---12-10-|
|-------12-(12)---------12-------------|
|--------------------------------------|
|--------------------------------------|

|------------------------|--------------13b15====|
|-(10)-(10)b10.5---------|------------x----------|
|-(10)-(10)b10.5---------|----------x------------|
|------------------------|--------x--------------|
|------------------------|-----------------------|
|------------------------|-----------------------|

|-13r=(13)-13p(12)-13p(12)-10-x-x----|
|------------------------------------|
|------------------------------------|
|------------------------------------|
|------------------------------------|
|------------------------------------|

|--------------------------------------------------------|-----------------|------|
|-13b15==(15)r(13)b17==(17)-(17)--(17)b18==(18)r=(13)b15-|-(15)--x---------|------|
|--------------------------------------------------------|-------x---------|------|
|--------------------------------------------------------|-----------------|------|
|--------------------------------------------------------|-----------------|------|
|--------------------------------------------------------|-----------------|------|

|----------10--------------------------------------|
|-------10----13p10--------------------------------|
|-12b14-------------12---12pb14r(12)-10---12p10----|
|-----------------------------------------------12-|
|--------------------------------------------------|
|--------------------------------------------------|

|--------------x-------------------------------|-----------------------------|
|--------------x-------------------------------|-----------------------------|
|-10b10.5--------12-10-------------------------|------------------------x----|
|---------12-x---12-10-------------------------|------------------------x----|
|----------------------12p10-12p10-8-10p8------|------------8----------------|
|-----------------------------------------10p8-|-10---10-10---10p8-10-------|

|------------------------|----------------------------|
|----------5h6p5---------|-----------6b7-(7)b8-(8)----|
|------5-7-------7-7p5---|-5-7-x-7p5------------------|
|---/7-----------------7-|----------------------------|
|------------------------|----------------------------|
|------------------------|----------------------------|

|------------------------------------------------|
|-------13pb15====(15)r(13)-13b15r(13)-(13)b17===|
|-----x------------------------------------------|
|---x--------------------------------------------|
|------------------------------------------------|
|------------------------------------------------|

|---------------------|-----------------15b17==|=(17)--(17)--(17)r---13p10----|
|-(17)r(13)-(13)------|-(13)----------0--------|-------------------x----------|
|---------------------|-------------x----------|------------------------------|
|---------------------|------------------------|------------------------------|
|---------------------|------------------------|------------------------------|
|---------------------|------------------------|------------------------------|

|-------13---12---15b17==(17)r(15)b17==(17)r(15)b17==(17)r(15)b17==(17)---|
|---/15-------------------------------------------------------------------|
|-------------------------------------------------------------------------|
|-------------------------------------------------------------------------|
|-------------------------------------------------------------------------|
|-------------------------------------------------------------------------|

|-(17)r----15pb17r(15)-(15)----|----18b19==(19)--18pb19----20b22==(22)-|
|-----------------------15-----|---------------------------------------|
|------------------------------|---------------------------------------|
|------------------------------|---------------------------------------|
|------------------------------|---------------------------------------|
|------------------------------|---------------------------------------|

|-(22)r------20p17----|-20p17-------------------|
|---------------------|-------------------------|
|---------------------|--------------10---10----|
|---------------------|-------------------------|
|---------------------|-------------------------|
|---------------------|-------------------------|

|---------------------------|-----------------------------------|
|---------------------------|-------13-----11---12---12-(12)-10-|
|-10--(10)b10.5-------x-x-x-|-10s12-12---x-10---12---12-(12)-10-|
|---------------12----x-x-x-|-12s14-14---x-12-------------------|
|---------------------------|-----------------------------------|
|---------------------------|-----------------------------------|

|------------------------------|
|-(10)-------------10b10.5-x-x-|
|-(10)p9------x----10b10.5-x-x-|
|-------------x-12-------------|
|------------------------------|
|------------------------------|







SEGUNDO GUITARRISTA (Tab 1):
e|---------------
B|---------------
G|-7-7-7--5--7-----
D|-7-7-7--5--7-------
A|-5-5-5--3--5-----
E|----------------
[repetir hasta la Parte 3]



BAJISTA (Tab 2):
G|----------------
D|-----------------
A|-5-5-5--3--5----
E|------------------
[repetir hasta la Parte 3]


===================================================================
                      (((((PART 3))))))


GUITARRA LÍDER:
e|---------------------------------------------------------------------------|
B|-3----5--6--5------3---5--6--5-----------------------------------------------------|
G|---------------------------------------------------------------------------|
D|---------------------------------------------------------------------------|
A|---------------------------------------------------------------------------|
E|---------------------------------------------------------------------------|
'I don't need no, arms around me'

GUITARRA LÍDER:
e|---------------------------------------------------------------------------|
B|-3---5--6--5-----3---5--6---(8)dejá que suene-------------------------------
G|---------------------------------------------------------------------------|
D|---------------------------------------------------------------------------|
A|---------------------------------------------------------------------------|
E|---------------------------------------------------------------------------|
'I don't need no, DRUGS TO CALME ME!'

GUITARRA LÍDER:
e|---------------------------------------------------------------------------|
B|-3----5--6--5------3---5--6--5-3----------------------------------------------------|
G|---------------------------------------------------------------------------|
D|---------------------------------------------------------------------------|
A|---------------------------------------------------------------------------|
E|---------------------------------------------------------------------------|
'I have seen the writing on the wall'

GUITARRA LÍDER
e|---------------------------------------------------------------------------|
B|-------------------------------------------------------------------------|
G|--7--9--10--9----7---9-7--12-(repetir éste acorde final varias veces, sigue abajo)---------
D|--------------------------12-------------------------------------------------|
A|--------------------------10-------------------------------------------------|
E|--------------------------10-------------------------------------------------|
'Don't think i need anything at all...!!!'




SEGUNDO GUITARRISTA:
e|---------------------------------------------------------------------------|
B|---------------------------------------------------------------------------|
G|--(7)que quede sonando éste acorde-----------------------------------------------|
D|--(7)-------------------------------------------------------------------------|
A|--(5)-------------------------------------------------------------------------|
E|---------------------------------------------------------------------------|

BAJISTA:
G|---------------------------------------------------------------------------|
D|---------------------------------------------------------------------------|
A|--5-------------------5--------------------5------------------------5----------|
E|---------------------------------------------------------------------------|
//lento//


___________________________________________________
"break":

`NO, DON'T THINK I NEED ANYTHING AT ALL!!!!!!!!!!!'

GUITARRA LÍDER:
e|---
B|-----
G|-12-
D|-12-
A|-10-
E|-10-
[repetir rápido constantemente]


SEGUNDO GUITARRISTA:
e|---
B|-----
G|-12-
D|-12-
A|-10-
E|-10-
[repetir rápido constantemente]

BAJISTA:
G|-----
D|-----
A|-10--
E|-----
[repetir rápido constantemente]

________________________________________________________________
"Conclusion":

'All in all you're just a-nother brick in the wall...
All in all you're just a-nother brick in the wall..!'

GUITARRA LÍDER:
e|----------------------------
B|-----------------------------
G|-----------------------------
D|-10-10---5--5----7--7--7--7--
A|-8--8----3--3----5--5--5--5---
E|-8--8----3--3----5--5--5--5--


SEGUNDO GUITARRISTA:
e|---------------------------
B|----------------------------
G|-10------5-------7-----7----
D|-10------5-------7-----7----
A|-8-------3-------5-----5----
E|----------------------------


BAJISTA:
G|---------------------------------------------------------------------------|
D|---------------------------------------------------------------------------|
A|-8-8-8-8-8-3-3-3-3-3-5-5-5-(5)dejá que suene------------------------|
E|---------------------------------------------------------------------------|

==========================================================================================
              ((((PART 4: O "good bye cruel world"))))))

//Ahora ambos guitarristas se quedan en silencio y el bajista hace://


'Goodbye, cruel world
I'm leaving you today
Goodbye, goodbye, goodbye

Goodbye, all you people
There's nothing you can say
To make me change my mind
Goodbye...'

G|---------------------------------------------------------------------------|
D|---------------------------------------------------------------------------|
A|--5---------------5--------------------5-------------------------5-------------|
E|---------5------------------5---------------------5---------------------------|
//tocalo lento, como si te estuviese muriendo, o estuviese triste//

Comentarios del colaborador: El solo es largo y lo saqué de ultimate-guitar.com para no tener que pasarlo todo

Calificar esta versión:
Aviso: Este fichero es trabajo propio de su transcriptor y representa su interpretación personal de la canción. El material contenido en esta página es para exclusivo uso privado, por lo que se prohibe su reproducción o retransmisión, así como su uso para fines comerciales.