A. D. I. D. A. S, Korn (tablatura)

Autor: alejandrocoria | 44420 visualizaciones


-------0--0-------------0-------I-------0--0-------------0-------I 
-------7--7-------------6-----0-I-------7--7-------------6-----0-I 
------------------------------5-I------------------------------5-I 
--------------------------------I--------------------------------I 
--------------------------------I--------------------------------I 
--2-------------2--2------------I--2-------------2--2------------I 
--0-------------0--0------------I--0-------------0--0------------I 
 
 
-------0--0-------------0-------I-------0--0-------------0-------I 
-------7--7-------------6-----0-I-------7--7-------------6-----0-I 
------------------------------5-I------------------------------5-I 
--------------------------------I--------------------------------I 
--------------------------------I--------------------------------I 
--2-------------2--2------------I--2-------------2--2------------I 
--0-------------0--0------------I--0-------------0--0------------I 
 
--------------0-----0-----------------------I 
--------------7-----7-----------------------I 
--------------------------------------------I 
--------------------------------------------I 
--------------------------------------------I 
-2----------------------------2-----2-----2-I 
-0----------------------------0-----0-----0-I 
 
 
~~~~~~~~~~~~~~~~   ~~~~~~~~~~~~~    ~~~~~~~~~  ~~~~~~~~   ~~~~~~~ ~~~~~~~  
~~~~~~ 
-7(12)-------------6(11)---------------------I------------5(10)----4(9)-------------I 
------------------------------------5(10)----I-4(9)------------------------3(8)-----I 
---------------------------------------------I--------------------------------------I 
---------------------------------------------I--------------------------------------I 
---------------------------------------------I--------------------------------------I 
---------------------------------------------I--------------------------------------I 
---------------------------------------------I--------------------------------------I 
 
---------------------------------------------------------------I 
--12---X----X----X-----------12---X----X----X---X--X---X-----X-I 
--12---X----X----X-----------12---X----X----X---X--X---X-----X-I 
---------------------------------------------------------------I 
---------------------------------------------------------------I 
---------------------------------------------------------------I 
---------------------------------------------------------------I 
 
------------------------------------------ 
---12---12-------12---12------------------ 
---12---12-------12---12------------------ 
------------------------------------------ 
------------------------------------------ 
------------------------------------------ 
------------------------------------------ 
                  
-------------------------------------------------------------I 
----------------------------------------------19--20--19--20-I 
----18-----18-----18-----18-----18-----18--------------------I 
-------------------------------------------------------------I 
-------------------------------------------------------------I 
-------------------------------------------------------------I 
-------------------------------------------------------------I 
 
    ~~~~~  ~~~~~   ~~~~~  ~~~~~  ~~~~  ~~~~~~                   
-------------------------------------------------------------I  
----------------------------------------------19--20--19--20-I  
----18-----18-----18-----18-----18-----18--------------------I  
-------------------------------------------------------------I  
-------------------------------------------------------------I  
-------------------------------------------------------------I  
-------------------------------------------------------------I  
                   
-------------------------------------------------------------------------------I 
-------------------------------------------------------------------------------I 
-------------------------------------------------------------------------------I 
-------5------(5)-/-6--5---------5-/-17--15---5----(5)-/-6--5-----(5)-/-17-I 
--------------(-)-------------------------------------(-)-------------(-)------I 
-------5------(5)-/-6--5---------5-/-17--15---5----(5)-/-6--5-----(5)-/-16-I 
-------------------------------------------------------------------------------I 
 
       
---------0------0------------------------------^-------^-------^---^--------^---^--------^---------------I 
---------7------7------------------------------7------(7)-----(7)-(7)------(7)-(7)------(7)----------(7)-I 
---------------------------------------------------------------------------------------------------------I 
---------------------------------------------------------------------------------------------------------I 
---------------------------------------------------------------------------------------------------------I 
--2--------------------2-----2-----2---------------------------------------------------------------------I 
--0--------------------0-----0-----0------------------------------------------- 
 

es el soloo no mass 
cualquier consulta en alejandrocoria_24@livve.com.ar
Calificar esta versión:
Aviso: Este fichero es trabajo propio de su transcriptor y representa su interpretación personal de la canción. El material contenido en esta página es para exclusivo uso privado, por lo que se prohibe su reproducción o retransmisión, así como su uso para fines comerciales.