Lambada, Kjarkjas (tablatura)

Autor: ahraly | 25381 visualizaciones



INTRO
  2x
1-5--3-1-------------------
2--------3-1-1-3-1-3-------
3---------------------2-0-2
4--------------------------
5--------------------------
6--------------------------

la segunda parte

1-3-3-1----5-3-1---------------
2---------3--------3-1--1-3-1-3
3------3-3------3-3------------
4------------------------------
5------------------------------
6------------------------------





Calificar esta versión:
Aviso: Este fichero es trabajo propio de su transcriptor y representa su interpretación personal de la canción. El material contenido en esta página es para exclusivo uso privado, por lo que se prohibe su reproducción o retransmisión, así como su uso para fines comerciales.