What I Always Wanted, Kittie (tablatura)

Autor: yoni5 | 41985 visualizaciones



What I Always Wanted
Kittie
Oracle

Intro
D:----------------------------|
A:----------------------------|
F:----------------------------|
C:-3-3-4-4-0-1--3-3-3-4-4-0-1-|
G:-3-3-4-4-0-1--3-3-3-4-4-0-1-|
C:-3-3-4-4-0-1--3-3-3-4-4-0-1-|

Verse
D:---------------------------------|
A:---------------------------------|
F:---------------------------------|
C:-4-4-4-4-4-4-4-0-3-3-3-3-3-3-3-3-|
G:-4-4-4-4-4-4-4-0-3-3-3-3-3-3-3-3-|
C:-4-4-4-4-4-4-4-0-3-3-3-3-3-3-3-3-|

Chorus
D:----------------------------------------------------------
A:----------------------------------------------------------
F:----------------------------------------------------------
C:-X-X-4/3-3-3-3--X-X-4/3-3-3-3--X-X-4/3-3-3-3p2-2-2-2/7-7-7
G:-X-X-4/3-3-3-3--X-X-4/3-3-3-3--X-X-4/3-3-3-3p2-2-2-2/7-7-7
C:-X-X-4/3-3-3-3--X-X-4/3-3-3-3--X-X-4/3-3-3-3p2-2-2-2/7-7-7

Outro
D:-------------|
A:-------------|
F:-------------|
C:-X-X-4-3-4-5-|
G:-X-X-4-3-4-5-|
C:-X-X-4-3-4-5-|



el tema es asii durantee toda la cancionnn 





Calificar esta versión:
Aviso: Este fichero es trabajo propio de su transcriptor y representa su interpretación personal de la canción. El material contenido en esta página es para exclusivo uso privado, por lo que se prohibe su reproducción o retransmisión, así como su uso para fines comerciales.