Gruppa Krovi, Kino (acordes)

Autor: KepTauto1 | 38516 visualizaciones

bmcsosmefsosmf5
Afinación: estándar

Intro/ Instrumental luego del 1 estribillo:
F#m F#m  F#m  C#m C#m

Bajo:
E-0-0--0-1-1--1-2-2

Verso
F#m, C#m,
F#m, E,
F#m, C#m,
F#m, E


Estribillo:
[E, F5, F#m
F#m, C#m, Bm, E] x2
E, F5, F#m

Intro otra vez

Verso

Coro, hasta que entra el sólo

Solo de final:
Guitarra 1:
e|-------------------9-5~---9-4~--------------------------|
B|--------------7-----------------------------------------|
G|---------4-6~--6----------------------------------------|
D|-4-4-6-7------------------------------------------------|
A|--------------------------------------------------------|
E|--------------------------------------------------------|

Guitarra 2:
No estoy seguro de que sea así, pero es parecido
e|-------------------9-5~---9-4~--------------------------|
B|--------------7-----------------------------------------|
G|----------7-9~--6---------------------------------------|
D|-7-7-9-11-----------------------------------------------|
A|--------------------------------------------------------|
E|--------------------------------------------------------|

Comentarios del colaborador: La conocerán quizá por GTA 4

Calificar esta versión:
Aviso: Este fichero es trabajo propio de su transcriptor y representa su interpretación personal de la canción. El material contenido en esta página es para exclusivo uso privado, por lo que se prohibe su reproducción o retransmisión, así como su uso para fines comerciales.