Walking On Air, King Crimson (acordes)

Autor: ayelen_fs | 30166 visualizaciones

aefsos5


Intro:

|----------------------------------------------------------------
|-10--10----9[9]--9h10p9[9]--------------------------------------
|-11----11----------------11[11]-9h11p9-----9[9]--9--9--9--------
|-11------11---------------------------11\9-9[9]--11-11-9--9--9--
|-9--------------------------------------------------------11-11-
|----------------------------------------------------------------

Verso:

                    F#5   
Close your eyes and look at me
                           E
I'll be stading by your side
                F#5
In between the deep blue sea
                     E
And the sheltering sky
              F#5
If we find no words to say
                      E
To the rhythm of the waves

Then will both surrender there       you're walkin on the air
|------------------------------------------------------------|
|---------------5---5---5---5---5---5------5---5-------------|
|---------------5---5---5---5---5---5------5---5-------------|
|---------------4---4---5---5---7---7------6---6-------------|
|------------------------------------------------------------|

Coro:

        and the worries...
|----------------------------------------------|
|----------------------------------------------|
|--1---1-------1---1-------1---1-------1---1---|
|-2---2---2---1---1---1---2---2---2---2---2---2|X2
|2---2---2---2---2---2---4---4---4---3---3---3-|
|----------------------------------------------|
|----------------------------------------------|

                   F#5     A 
You don't have to hurry
                      E
You don't have to try

You don't have a care

                      you're walkin on the air
|---------------------------------------------|
|5---5---5---5---5---5------5---5-------------|
|5---5---5---5---5---5------5---5-------------|
|4---4---5---5---7---7------6---6-------------|
|---------------------------------------------|

 Bridge: E

|--------------------------------------------|
|--------------------------------------------|
|-------------------------------10/12-10-----|
|-11p9h11--13p11h13--11p9h11---9--------12-9-|
|--------------------------------------------|
|--------------------------------------------|


                      you're walkin on the air
|---------------------------------------------|
|5---5---5---5---5---5------5---5-------------|
|5---5---5---5---5---5------5---5-------------|
|4---4---5---5---7---7------6---6-------------|
|---------------------------------------------|


Coro:

        and the worries...
|----------------------------------------------|
|----------------------------------------------|
|--1---1-------1---1-------1---1-------1---1---|
|-2---2---2---1---1---1---2---2---2---2---2---2|X2
|2---2---2---2---2---2---4---4---4---3---3---3-|
|----------------------------------------------|
|----------------------------------------------|


                      you're walkin on the air
|---------------------------------------------|
|5---5---5---5---5---5------5---5-------------|
|5---5---5---5---5---5------5---5-------------|
|4---4---5---5---7---7------6---6-------------|
|---------------------------------------------|





Calificar esta versión:
Aviso: Este fichero es trabajo propio de su transcriptor y representa su interpretación personal de la canción. El material contenido en esta página es para exclusivo uso privado, por lo que se prohibe su reproducción o retransmisión, así como su uso para fines comerciales.