Candombito, Kevin Johansen (tablatura)

Autor: Anónimo | 37100 visualizaciones



candombito

1|-0/1--0/1--2--0/1--0/1--2--0/1--0--------|
2|-----------------------------------1--0--|
3|-0----0----0--0----0----0--0----0--------|


1|-0/1--0/1--2--0/1--0/1--2--0/1--0--------|
2|-----------------------------------3--1--|
3|-0----0----0--0----0----0--0----0--------|

1|-------------------------------|
2|-0--1--3--1--0--0--1--3--1--0--|
3|-------------------------------|

en la parte del estribillo toca Gm  Am  Gm  Am

Fuente original: LaCuerda
Colaborador original: daniel [lacasitadedani@yahoo.com.ar]





Calificar esta versión:
Aviso: Este fichero es trabajo propio de su transcriptor y representa su interpretación personal de la canción. El material contenido en esta página es para exclusivo uso privado, por lo que se prohibe su reproducción o retransmisión, así como su uso para fines comerciales.