Rompiendo El Silencio, Kendall (tablatura)

Autor: Dieguex k/f | 41951 visualizaciones



1|------------------------------------------5-3-5-3---------5-3-5-3
 2|------------------------------------------5-3-5-3---------5-3-5-3
 3|----------9-7-9-7---------9-7-9-7--------------------------------
 4|--------9-9-7-9-7-------9-9-7-9-7-------5---------------5--------
 5|--------9---------------9---------------5---------------5--------
 6|-0-0-0--7---------0-0-0-7---------0-0-0-3---------0-0-0-3--------
PM| . . .            . . .           . . .           . . .

 1|------------------------------------------5-3-5-3---------5-3-5-3
 2|------------------------------------------5-3-5-3---------5-3-5-3
 3|----------9-7-9-7---------9-7-9-7--------------------------------
 4|--------9-9-7-9-7-------9-9-7-9-7-------5---------------5--------
 5|--------9---------------9---------------5---------------5--------
 6|-0-0-0--7---------0-0-0-7---------0-0-0-3---------0-0-0-3--------
PM| . . .            . . .           . . .           . . .



*esto va Rasgueado (nadamas pongo la forma d la melodía no las vecs q
se va a tokr la nota)
 1|--------------------------------------------
 2|--------------------------------------------
 3|-------7-6-6/7-14-7/9--------7-6-6-7-9-11---
 4|-2--4------------------2--4-----------------
 5|-2--4--5-4-4/5-12-5/7--2--4--5-4-4-5-7--9---
 6|-0--2------------------0--2-----------------


 1|------------------------------------------5-3-5-3---------5-3-5-3
 2|------------------------------------------5-3-5-3---------5-3-5-3
 3|----------9-7-9-7---------9-7-9-7--------------------------------
 4|--------9-9-7-9-7-------9-9-7-9-7-------5---------------5--------
 5|--------9---------------9---------------5---------------5--------
 6|-0-0-0--7---------0-0-0-7---------0-0-0-3---------0-0-0-3--------
PM| . . .            . . .           . . .           . . .


 1|------------------------------------------5-3-5-3---------5-3-5-3
 2|------------------------------------------5-3-5-3---------5-3-5-3
 3|----------9-7-9-7---------9-7-9-7--------------------------------
 4|--------9-9-7-9-7-------9-9-7-9-7-------5---------------5--------
 5|--------9---------------9---------------5---------------5--------
 6|-0-0-0--7---------0-0-0-7---------0-0-0-3---------0-0-0-3--------
PM| . . .            . . .           . . .           . . .

 1|--------------------------------------------
 2|--------------------------------------------
 3|-------7-6-6/7-14-7/9--------7-6-6-7-9-11---
 4|-2--4------------------2--4-----------------
 5|-2--4--5-4-4/5-12-5/7--2--4--5-4-4-5-7--9---
 6|-0--2------------------0--2-----------------

*esto va rasgueado ponle atención a la rola pa tokarlo
 1|----------------|
 2|----------------|
 3|----------------|x4
 4|-9---5---2---7--|
 5|-9---5---2---7--|
 6|-7---3---0---5--|


 1|---------------------------------------|
 2|---------------------------------------|
 3|---------------------------------------|
 4|--9-9-9-----9-9-9-----9-9-9-----9-9-9--|
 5|--9-9-9-----9-9-9-----9-9-9-----9-9-9--|
 6|--7-7-7-----7-7-7-----7-7-7-----7-7-7--|


 1|--------------------------------------------|
 2|--------------------------------------------|
 3|-------7-6-6/7-14-7/9--------7-6-6-7-9-11---|
 4|-2--4------------------2--4-----------------|
 5|-2--4--5-4-4/5-12-5/7--2--4--5-4-4-5-7--9---|
 6|-0--2------------------0--2-----------------|


 1|----------------|
 2|----------------|
 3|----------------|x4
 4|-9---5---2---7--|
 5|-9---5---2---7--|
 6|-7---3---0---5--|


 1|-----------------------------------|
 2|-----------------------------------|
 3|-----------------------------------|
 4|--9-9-9~~-----9-9-9~~-----9-9-9~~--|
 5|--9-9-9~~-----9-9-9~~-----9-9-9~~--|
 6|--7-7-7~~-----7-7-7~~-----7-7-7~~--|


 1|--------------------------------------------------------|
 2|--------------------------------------------------------|
 3|--------------------------------------------------------|
 4|--9-9---9-9---9-9---9-9---9-9--9--5-5-5-5--5-5-5-5--5-5-|
 5|--9-9---9-9---9-9---9-9---9-9--9--5-5-5-5--5-5-5-5--5-5-|
 6|--7-7---7-7---7-7---7-7---7-7--7--3-3-3-3--3-3-3-3?-3-3-|
PM|  . .   . .   . .   . .   . .  .  . . . .  . . . .  . .


 1|--------------------------------------------------------|
 2|--------------------------------------------------------|
 3|--------------------------------------------------------|
 4|--9-9---9-9---9-9---9-9---9-9--9--5-5-5-5--5-5-5-5--5-5-|
 5|--9-9---9-9---9-9---9-9---9-9--9--5-5-5-5--5-5-5-5--5-5-|
 6|--7-7---7-7---7-7---7-7---7-7--7--3-3-3-3--3-3-3-3?-3-3-|
PM|  . .   . .   . .   . .   . .  .  . . . .  . . . .  . .



*d esto no stoy muy seguro pero asi lo oigo
 1|-------------------------------------|
 2|-------------------------------------|
 3|----------9-----------------9--------|
 4|--9-9-9-9---9-9-9---9-9-9-9---9-9-9--|
 5|-------------------------------------|
 6|-------------------------------------|
PM|  . . . .   . . .    . . . .   . . . |
                                      
 1|-------------------------------------|
 2|-------------------------------------|
 3|-------------------------------------|
 4|--9-9-9-9-9-9-9-9-9-9-9-9-9-9-9-9-9--|
 5|--9-9-9-9-9-9-9-9-9-9-9-9-9-9-9-9-9--|
 6|--7-7-7-7-7-7-7-7-7-7-7-7-7-7-7-7-7--|
PM|  . . . . . . . . . . . . . . . . .  |



 1|-------------------------------------|
 2|-------------------------------------|
 3|----------7-----------------7--------|
 4|--5-5-5-5---5-5-5---5-5-5-5---5-5-5--|
 5|-------------------------------------|
 6|-------------------------------------|
PM|  . . . .   . . .   . . . .   . . .  |
  |                                     |
 1|-------------------------------------|
 2|-------------------------------------|
 3|-------------------------------------|
 4|--5-5-5-5-5-5-5-5-5-5-5-5-5-5-5-5-5--|
 5|--5-5-5-5-5-5-5-5-5-5-5-5-5-5-5-5-5--|
 6|--3-3-3-3-3-3-3-3-3-3-3-3-3-3-3-3-3--|
PM|  . . . . . . . . . . . . . . . . .  |


 1|--------------------------------------------------------|
 2|--------------------------------------------------------|
 3|--------------------------------------------------------|
 4|--9-9-9-9---9-9-9-9---9-9----5-5-5-5--5-5-5-5--5-5-5----|
 5|--9-9-9-9---9-9-9-9---9-9----5-5-5-5--5-5-5-5--5-5-5----|
 6|--7-7-7-7---7-7-7-7---7-7----3-3-3-3--3-3-3-3?-3-3-3----|
PM|                                               . . .


 1|----------------------------------------------------|
 2|----------------------------------------------------|
 3|----------------------------------------------------|
 4|--9-9-9-9---9-9-9-9---9-9----5-5-5-5--5-5-5-5--5-5~~|
 5|--9-9-9-9---9-9-9-9---9-9----5-5-5-5--5-5-5-5--5-5~~|
 6|--7-7-7-7---7-7-7-7---7-7----3-3-3-3--3-3-3-3?-3-3~~|


*esto tambien va rasgueado tambien solo pongo la forma de la melodía
escucha la rola
 1|-------------------------------------------------------------|
 2|-------------------------------------------------------------|
 3|--7---14-12-11-11-11-12-7---14-14-12-12-11-11-12-12-11-12-7~~|
 4|-------------------------------------------------------------|
 5|--5---12-10--9--9--9-10-5---12-12-10-10--9--9-10-10--9-10-5~~|
 6|-------------------------------------------------------------|





Comentarios del colaborador: esta tab se la dediko al amor de mi vida la amo kon toda mi alma eres too pa mi Blenda T amo... cualquier reclamo ami correo diegovasquez80@hotmail.com

Calificar esta versión:
Aviso: Este fichero es trabajo propio de su transcriptor y representa su interpretación personal de la canción. El material contenido en esta página es para exclusivo uso privado, por lo que se prohibe su reproducción o retransmisión, así como su uso para fines comerciales.