El Baúl De Los Recuerdos, Karina (tablatura)

Autor: Anónimo | 19729 visualizaciones

Esta tablatura la he sacado ha oído con mi guitarra,
espero que les guste:


E-----------------------------------|---------|
B-0---3---3-3---3-3---1-0---1-0-----|----0----|
G--------------------------------2--|-2-----2-|
D-----------------------------------|---------|
A-----------------------------------|---------|
E-----------------------------------|---------|
  Qué poco significan las palabras ,   u ú u ,

E-------------------------------------------|
B-----1---1-1---1-1---0-----0---------------|
G-2---------------------2-----2---0---------|
D-----------------------------------2----0--|
A-------------------------------------------|
E-------------------------------------------|
Si cuando sopla el viento se las lleva tras él


Se repite lo mismo de antes una vez más, mientras se dice:

Y quedan solamente los recuerdos , u ú u,
Promesas que volaron y no pueden volver.

ESTRIBILLO:

E----------------------------|----------------------------|
B-----------------0----------|--1--1-1--1-1--0----0-------|
G-0-------0---------2---0-2--|2----------------2---2-0----|
D-----0-------0--------------|------------------------2-0-|
A----------------------------|----------------------------|
E----------------------------|----------------------------|
Vive siempre con ilusión, Si cada día tiene diferente color

Se repite la tablatura del estribillo mientras se dice:

Porque todo llega a su fin,
después de un día triste nace otro feliz




El resto de la canción sigue igual, es decir,
repitiendo la tablaturas pero con letra diferente.

Cualquier duda escriban a enar_93@hotmail.com
Calificar esta versión:
Aviso: Este fichero es trabajo propio de su transcriptor y representa su interpretación personal de la canción. El material contenido en esta página es para exclusivo uso privado, por lo que se prohibe su reproducción o retransmisión, así como su uso para fines comerciales.