Carry On My Wayward Son, Kansas (tablatura)

Autor: krlos_14 | 33367 visualizaciones

E|---------------------|-------------------------|
B|---------------------|-------------------------|
G|---------------------|---0---------------------|
D|----------------0----|-2---2p0---0----0--------|
A|-0---0-3~-0---0------|---------3---------------|
E|---3--------3--------|-------------3~---2~-----|




E|------------------------------|--------------------|
B|-----12-12--------------------|------14-12---------|
G|-----12-12--------------------|------14-12---------|
D|-2---12-12--------12-------12-|-14---14-12---------|
A|-2----------12h14----14h14----|-14-----------------|
E|-0----------------------------|-12-----------------|



E|-------------------------2-------------------------|
B|-------------------------3-------------------------|
G|-2-2p0-------------------2----5--------------------|
D|-2-----2p0---------------0----5--------------------|
A|-0---------3p0-3-0-----0------3--------------------|
E|---------------------3-----------------------------|

E|-------------------------2-------------------------|
B|-------------------------3-------------------------|
G|-2-2p0-------------------2-------------------------|
D|-2-----2p0---------------0-------------------------|
A|-0---------3p0-3-0-----0---------------------------|
E|---------------------3-----------------------------|
Calificar esta versión:
Aviso: Este fichero es trabajo propio de su transcriptor y representa su interpretación personal de la canción. El material contenido en esta página es para exclusivo uso privado, por lo que se prohibe su reproducción o retransmisión, así como su uso para fines comerciales.