Tu Dices (and We Don´t Stop), Kannon (tablatura)

Autor: MorKu | 26045 visualizaciones



NOTACION

s= slide
p= pull off
b= bend
>= mantener el sonido
*= tocar varias veces esa nota o acorde

-----------------------------------------------------------

AFINACION

Dropped C# (C#,G#,C#,F#,Bb,Eb): afina la sexta cuerda de tu
guitarra tres semitonos menos y las cinco cuerdas restantes
afinalas un semitono menos

-----------------------------------------------------------

INTRO

-----------------------------------------
-----------------------------------------
--7-7--7-7--7-7-7-7---8-8--8-8--8-8-8-8--
--7-7--7-7--7-7-7-7---7-7--7-7--7-7-7-7--
--5-5--5-5--5-5-5-5---5-5--5-5--5-5-5-5--
-----------------------------------------



VERSO

1) (De nuevo, sí...)

Tocar lo mismo que en Intro

2) (Os presento, sí...)

Guitarra 1: tocar lo mismo que en Intro

Guitarra 2
-------------------------------
-------------------------------
--7-7--7-7---8-8--8-8--8s10b>--
-------------------------------
--5-5--5-5---6-6--6-6--6s8b>---
-------------------------------



CHORUS (Tú dices Kannon...)

Guitarra 1
----------------------------------------------------
----------------------------------------------------
----------------------------------------------------
--0-0---0-0--1p0--1-3---0-0-3-0-1-0-3-0---1p0--1-3--
--0-0---0-0--1p0--1-3---0-0-3-0-1-0-3-0---1p0--1-3--
--0-0---0-0--1p0--1-3---0-0-3-0-1-0-3-0---1p0--1-3--

Guitarra 2
------------------------
------------------------
--14----12----11---12---
------------------------
--12*---10*---9*---10*--
------------------------



POST-CHORUS (...representar)

---------------------------------
-----------10>--------------11>--
--7-7-7-7-------7-7-8--7-8-------
---------------------------------
---------------------------------
---------------------------------





Calificar esta versión:
Aviso: Este fichero es trabajo propio de su transcriptor y representa su interpretación personal de la canción. El material contenido en esta página es para exclusivo uso privado, por lo que se prohibe su reproducción o retransmisión, así como su uso para fines comerciales.