Sal, Kannon (tablatura)

Autor: MorKu | 45496 visualizaciones



NOTACION

b= bend
*= tocar varias veces esa nota o acorde
PM= palm muted (si va seguido de una línea de puntos hacerlo
hasta donde termine la línea de puntos)

-----------------------------------------------------------
-----------------------------------------------------------

AFINACION

Afinación en B (B,E,A,D,F#,B): afina todas las cuerdas de
la guitarra cinco semitonos menos

-----------------------------------------------------------
-----------------------------------------------------------


-----
INTRO
-----


1)


-----------------------------------------------------------
-----------------------------------------------------------
-----------------------------------------------------------
--2--2--2--2--2--2--2----0--2----2--2--2----2--4--5--4--2--
-----------------------------------------------------------
-----------------------------------------------------------
  PM.....................................................

----------------------------------------------------------
----------------------------------------------------------
----------------------------------------------------------
-----------------------------0----------------------------
--2b--2b--2b--2b--2b--2b--0-------2b----------------------
--------------------------------------6b--5b--4b--3b--2b--
  PM....................................................


2)


-----------------------------------------------------------
-----------------------------------------------------------
-----------------------------------------------------------
--2--2--2--2--2--2--2----0--2----2--2--2----2--4--5--4--2--
-----------------------------------------------------------
-----------------------------------------------------------
  PM.....................................................

----------------------------------------------------
----------------------------------------------------
----------------------------------------------------
-----------------------0-------------------0--4--0--
--2--2--2--2--2--2--0-----2--2--2--2----2-----------
----------------------------------------------------
  PM..............................................


-------
VERSO 1 (Ves ropa, vístetela...)
-------


-----------------------------------------------------------
-----------------------------------------------------------
-----------------------------------------------------------
--2--2--2--2--2--2--2----0--2----2--2--2----2--4--5--4--2--
-----------------------------------------------------------
-----------------------------------------------------------
  PM.....................................................

----------------------------------------------------
----------------------------------------------------
----------------------------------------------------
-----------------------0-------------------0--4--0--
--2--2--2--2--2--2--0-----2--2--2--2----2-----------
----------------------------------------------------
  PM..............................................

-----------------------------------------------------------
-----------------------------------------------------------
-----------------------------------------------------------
--2--2--2--2--2--2--2----0--2----2--2--2----2--4--5--4--2--
-----------------------------------------------------------
-----------------------------------------------------------
  PM.....................................................

----------------------------------------------------
----------------------------------------------------
----------------------------------------------------
-----------------------0-------------------0--4--0--
--2--2--2--2--2--2--0-----2--2--2--2----2-----------
----------------------------------------------------
  PM........


--------
CHORUS 1 (Cumple deseos...) (x2)
--------


-------x-x-x-x-------x-x-x-x-------x-x-x-x-----------------
-------x-x-x-x-------x-x-x-x-------x-x-x-x-----------------
--4-4--x-x-x-x--4-4--x-x-x-x--4-4--x-x-x-x--4--6--7--6--4--
--2-2--x-x-x-x--2-2--x-x-x-x--2-2--x-x-x-x--2--4--5--4--2--
--2-2--x-x-x-x--2-2--x-x-x-x--2-2--x-x-x-x--2--4--5--4--2--
-------x-x-x-x-------x-x-x-x-------x-x-x-x-----------------

-------x-x-x-x-------x-x-x-x-------x-x-x-x--------------
-------x-x-x-x-------x-x-x-x-------x-x-x-x--------------
--4-4--x-x-x-x--4-4--x-x-x-x--4-4--x-x-x-x--4--7--6--7--
--4-4--x-x-x-x--4-4--x-x-x-x--4-4--x-x-x-x--4--7--4--7--
--2-2--x-x-x-x--2-2--x-x-x-x--2-2--x-x-x-x--2--5--4--5--
-------x-x-x-x-------x-x-x-x-------x-x-x-x--------------


-------
VERSO 2 (Si estás dentro...)
-------


-----------------------------------------------------------
-----------------------------------------------------------
-----------------------------------------------------------
--2--2--2--2--2--2--2----0--2----2--2--2----2--4--5--4--2--
-----------------------------------------------------------
-----------------------------------------------------------
  PM.....................................................

----------------------------------------------------------
----------------------------------------------------------
----------------------------------------------------------
-----------------------------0-------------------0--4--0--
--2b--2b--2b--2b--2b--2b--0-----2--2--2--2----2-----------
----------------------------------------------------------
  PM....................................................

-----------------------------------------------------------
-----------------------------------------------------------
-----------------------------------------------------------
--2--2--2--2--2--2--2----0--2----2--2--2----2--4--5--4--2--
-----------------------------------------------------------
-----------------------------------------------------------
  PM.....................................................

----------------------------------------------------
----------------------------------------------------
----------------------------------------------------
-----------------------0-------------------0--4--0--
--2--2--2--2--2--2--0-----2--2--2--2----2-----------
----------------------------------------------------
  PM..


--------
CHORUS 2 (Cumple deseos...)
--------


Tocar lo mismo que en Chorus 1


-------
VERSO 3 (Buena mierda suena...)
-------


Guitarra 1
----------

---------------------------------
---------------------------------
---------------------------------
--9----7--9----9--11--12--11--9--
--7----5--7----7---9--10---9--7--
---------------------------------
  PM...........................

----------------------------
----------------------------
----------------------------
--4----2--4----4--7--11--7--
--2----0--2----2--5---9--5--
----------------------------
  PM......................

---------------------------------
---------------------------------
---------------------------------
--9----7--9----9--11--12--11--9--
--7----5--7----7---9--10---9--7--
---------------------------------
  PM...........................

----------------------------
----------------------------
----------------------------
--4----2--4----4--7--11--7--
--2----0--2----2--5---9--5--
----------------------------
  PM......................

---------------------------------
---------------------------------
---------------------------------
--9----7--9----9--11--12--11--9--
--7----5--7----7---9--10---9--7--
---------------------------------
  PM...........................

---------------------------
---------------------------
---------------------------
--4----2--4-------0--4--0--
--2----0--2----2-----------
---------------------------
  PM.......


Guitarra 2 (x3)
----------

--15----------15----------15------
------17----------17----------17--
----------16----------16---------- (x2)
----------------------------------
----------------------------------
----------------------------------

--14----------14----------14------
------16----------16----------16--
----------16----------16---------- (x2)
----------------------------------
----------------------------------
----------------------------------


Guitarra 3
----------

--------------------------------------------------
--8--8--8--8--8--8--8--8--8--8--8--8--8--8--8--8--
--------------------------------------------------
--------------------------------------------------
--------------------------------------------------
--------------------------------------------------
  PM................................

--------------------------------------------------
--7--7--7--7--7--7--7--7--7--7--7--7--7--7--7--7--
--------------------------------------------------
--------------------------------------------------
--------------------------------------------------
--------------------------------------------------
  PM................................

--------------------------------------------------
--8--8--8--8--8--8--8--8--8--8--8--8--8--8--8--8--
--------------------------------------------------
--------------------------------------------------
--------------------------------------------------
--------------------------------------------------
  PM..        PM..        PM..        PM..

--------------------------------------------------
--7--7--7--7--7--7--7--7--7--7--7--7--7--7--7--7--
--------------------------------------------------
--------------------------------------------------
--------------------------------------------------
--------------------------------------------------
  PM..        PM..        PM..        PM..

--------------------------------------------------
--8--8--8--8--8--8--8--8--8--8--8--8--8--8--8--8--
--------------------------------------------------
--------------------------------------------------
--------------------------------------------------
--------------------------------------------------
  PM................................

--------------------------------------------------
--7--7--7--7--7--7--7--7--7--7--7--7--7--7--7--7--
--------------------------------------------------
--------------------------------------------------
--------------------------------------------------
--------------------------------------------------
  PM..        PM..        PM..        PM..


--------
CHORUS 3
--------


Tocar lo mismo que en Chorus 1


-----
FINAL
-----


Guitarra 1
----------

-------x-x-x-x-------x-x-x-x---------x-x-x-x-------------
-------x-x-x-x-------x-x-x-x---------x-x-x-x-------------
--4-4--x-x-x-x--4-4--x-x-x-x--2-4-4--x-x-x-x--4-6-7-6-4--
--2-2--x-x-x-x--2-2--x-x-x-x--0-2-2--x-x-x-x--2-4-5-4-2--
-------x-x-x-x-------x-x-x-x---------x-x-x-x-------------
---------------------------------------------------------

-------x-x-x-x-------x-x-x-x---------x-x-x-x-----------
-------x-x-x-x-------x-x-x-x---------x-x-x-x-----------
--4-4--x-x-x-x--4-4--x-x-x-x--2-4-4--x-x-x-x--4-7-6-7--
--4-4--x-x-x-x--4-4--x-x-x-x--2-4-4--x-x-x-x--4-7-4-7--
-------x-x-x-x-------x-x-x-x---------x-x-x-x-----------
-------------------------------------------------------


Guitarra 2
----------

-------x-x-x-x-------x-x-x-x---------x-x-x-x-------------
--5-5--x-x-x-x--5-5--x-x-x-x--3-5-5--x-x-x-x--5-7-8-7-5--
--4-4--x-x-x-x--4-4--x-x-x-x--2-4-4--x-x-x-x--4-6-7-6-4--
-------x-x-x-x-------x-x-x-x---------x-x-x-x-------------
---------------------------------------------------------
---------------------------------------------------------

-------x-x-x-x-------x-x-x-x---------x-x-x-x-----------
-------x-x-x-x-------x-x-x-x---------x-x-x-x-----------
--4-4--x-x-x-x--4-4--x-x-x-x--2-4-4--x-x-x-x--4-7-6-7--
--4-4--x-x-x-x--4-4--x-x-x-x--2-4-4--x-x-x-x--4-7-4-7--
-------x-x-x-x-------x-x-x-x---------x-x-x-x-----------
-------------------------------------------------------


Guitarra 3
----------

--15*--14*--
------------
------------
------------
------------
------------






Calificar esta versión:
Aviso: Este fichero es trabajo propio de su transcriptor y representa su interpretación personal de la canción. El material contenido en esta página es para exclusivo uso privado, por lo que se prohibe su reproducción o retransmisión, así como su uso para fines comerciales.