Ruido, Kannon (tablatura)

Autor: MorKu | 28761 visualizaciones



h= hammer on
p= pull off
bu= bend up
s= slide
()= harmónico
>= mantener el sonido
PM= palm muted (si va seguido de una línea de puntos hacerlo
hasta donde termina la línea de puntos)

-----------------------------------------------------------
-----------------------------------------------------------

AFINACION

Dropped C# (C#,G#,C#,F#,Bb,Eb): afina la sexta cuerda de tu
guitarra tres semitonos menos y las cinco cuerdas restantes
afínalas un semitono menos

-----------------------------------------------------------
-----------------------------------------------------------


-------
VERSO 1 (Qué locura, tontería pura...)
-------


--(13)-------------------
--------10----8-----6----
--------12bu--10bu--8bu-- (x3)
-------------------------
-------------------------
-------------------------

--(13)-------------------10--
--------10----8-----6--------
--------12bu--10bu--8bu------
-----------------------------
-----------------------------
-----------------------------


--------
CHORUS 1 (...a la música)
--------


-------------------------------------------------
-------------------------------------------------
-------------------------------------------------
--0-0--1p0--1p0--0-0-0--1p0--1h3--0-0--1p0--1p0--
--0-0--1p0--1p0--0-0-0--1p0--1h3--0-0--1p0--1p0--
--0-0--1p0--1p0--0-0-0--1p0--1h3--0-0--1p0--1p0--


-------
VERSO 2 (Uno, dos, uno, dos,...)
-------


        (x?)
------------¡----------
------------¡--15--15--
------------¡----------
--12h13p12--¡----------
------------¡----------
------------¡----------


        (x?)
------------¡------
------------¡--10--
------------¡------
--12h13p12--¡------
------------¡------
------------¡------


        (x?)
------------¡----------
------------¡--15--15--
------------¡----------
--12h13p12--¡----------
------------¡----------
------------¡----------


        (x?)
------------¡------
------------¡--18--
------------¡--17--
--12h13p12--¡------
------------¡------
------------¡------


--------
CHORUS 2 (...que no la tachen de ruido)
--------


----------------------------------
----------------------------------
----------------------------------
--0-0--1p0--1p0--0-0-0--1p0--1h3--
--0-0--1p0--1p0--0-0-0--1p0--1h3--
--0-0--1p0--1p0--0-0-0--1p0--1h3--


-------
VERSO 3 (Y cada vez que vengan...)
-------


Guitarra 1
----------

-------------------------
-----3-------------------
--------2----------0--2--
--0-----------0h1--------
-------------------------
-------------------------


Guitarra 2
----------

-------------------------------
-------------------------------
--7s8--7>----7s5s3--2s3s2--2>--
--0>---0>----0>-----0>-----0>--
-------------------------------
-------------------------------


--------
CHORUS 3
--------


1) (¡Ruido!)


----------------------------------
----------------------------------
----------------------------------
--0-0--1p0--1p0--0-0-0--1p0--1h3--
--0-0--1p0--1p0--0-0-0--1p0--1h3--
--0-0--1p0--1p0--0-0-0--1p0--1h3--


2) (Ruido, tienen la osadia de...)


-------------------------------------------------
-------------------------------------------------
-------------------------------------------------
--0-0--1p0--1p0--0-0-0--1p0--1h3--0-0--1p0--1p0--
--0-0--1p0--1p0--0-0-0--1p0--1h3--0-0--1p0--1p0--
--0-0--1p0--1p0--0-0-0--1p0--1h3--0-0--1p0--1p0--
  PM...........................................





Calificar esta versión:
Aviso: Este fichero es trabajo propio de su transcriptor y representa su interpretación personal de la canción. El material contenido en esta página es para exclusivo uso privado, por lo que se prohibe su reproducción o retransmisión, así como su uso para fines comerciales.