Fuwa Fuwa Time, K-on (tablatura)

Autor: Xx_thevampiremurder_xX | 21519 visualizaciones



escuchen la cancion!!:  
http://www.youtube.com/watch?v=H4FQIpgTQYQ


riff 1:

---------------------------------------
---------------------------------------
------9-9-9-9-9--9-9-------------------x4                      
-------9-9-9-9-9--9-9--5-5-5--9-9-9-9---
---777-7-7-7-7-7--7-7--5-5-5--9-9-9-9---
-----------------------7-7-7--7-7-7-7---

riff 2
----------------------------------------------------------------
----------------------------------------------------------------
----------------------------------------------------------------
-9----------9----------------9------x-9-x-9-(9)9-x-9-9-9-9-9----
-7--7-7-7-7-7--7----------7--7--7-7-x-7-x-7-(7)7-x-7-6-6-6-6----
---------------5--5-5-5-5-5-------------------------------------

---------------------------------------------------
---------------------------------------------------
---------------------------------------------------
-6----------6--------------------------------------
-4--4-4-4-4-4--7----------7--9----------9-----9----
---------------5--5-5-5-5-5--7--7-7-7-7-7-x-x-7----

riff 3:
------------------------------------2---4-----------------------
------------------------------------2---4-----------------------
------------------------------------2---4---9---9--10-(10)10----
---------------------------------4--4---2---9---9--9--(9)--9----
-5-----7---7---6-----6---6---6---4----------7--x7-x7--(7)--7----
-7---x-5-x-5---4---x-4-x-4-x-4---2------------------------------


----------------------------------------------------------------
----------------------------------------------------------------
----------------------------------------------------------------
-----------------------6-----------------------------6-9--------
-5-----5---5---5---7---4---4---9---9----9---9---9-9--4-6--------
-7---x-7-x-7-x-7---4-------2---6---7--x-7-x-7-x-7-7-------------


riff 4:
----------------------------------------------------------------
----------------------------------------------------------------
-9-----2-----4-----5-----6------2------------4------------------
-9-----2-----4-----6-----6------2-----4------4--6--9------------
-7-----0-----2-----3-----4------0-----4--x-x-2--4--6------------
--------------------------------------2-------------------------


-------------------------------------------
-------------------------------------------
-9-----2-----4-----5-----6-------2---4-----
-9-----2-----4-----6-----6-------2---4-----
-7-----0-----2-----3-----4-------0---2-----
-------------------------------------------

riff 5:

---------------------------------------
---------------------------------------
------9-9-9-9-9--9-9-------------------x4
-------9-9-9-9-9--9-9--5-5-5--9-9-9-9---
---777-7-7-7-7-7--7-7--5-5-5--9-9-9-9---
-----------------------7-7-7--7-7-7-7---

----------------------------------------------------------------
----------------------------------------------------------------
------------------------------------2-0-------------------------
-9-9-9-9-9--9---------------------------2-0---------------------
-7-7-7-7-7--7--5-5--9-9---2-----------------2---0-----2---------
---------------7-7--7-7---0-----------------------3---0---------

ñaaaa>.< es un rollo de memorizar todos los riffs pero es una cnacion buenisima de k-on asi que merece la pena xD
mucha suerte!

moka-chan





Calificar esta versión:
Aviso: Este fichero es trabajo propio de su transcriptor y representa su interpretación personal de la canción. El material contenido en esta página es para exclusivo uso privado, por lo que se prohibe su reproducción o retransmisión, así como su uso para fines comerciales.