Cagayake Girls!, K-on (tablatura)

Autor: LenOkasaki | 30764 visualizaciones



----------------------------------------------------|
----------------------------------------------------|
------------------777-------------------777---------|
--789-x-789-x-788-777---789-x-789-x-789-777---------|
--789-x-789-x-789-555---789-x-789-x-789-555---------|
--567-x-567-x-567-------567-x-567-x-567------7/1----|


riff 2:

-5--5---7-7--7-7-7-7--7---5--5--7-7--8--8--8---10-10-------|
-5--5---7-7--9-9-9-7--7---5--5--7-7--8--8--8---10-10-------|
-6--6---8-8--9-9-9-8--8---6--6--8-8--9--9--9---11-11-------|
-7--7---9-9--9-9-9-9--9---7--7--9-9--10-10-10--12-12-------|
-7--7---9-9-x7x7x7-9--9---7--7--9-9--10-10-10--12-12-------|
-5--5---7-7--------7--7---5--5--7-7-x8-x8-x8---10-10-------|


riff 3:

-----------------------------------------------------------|
-----------------------------------------------------------|
-----------------------------------------------------------|
--9--9--8-8--9--9--9-8-xx----9--9--8-8--9--9-xx-8-9--------|
--7--7--6-6-x7-x7-x7-6-xx----7--7--6-6-x7-x7-xx-6-7--------|
-----------------------------------------------------------|

riff 4:usa palm mute
--------------------------------------------------------------|
--------------------------------------------------------------|
--9---------------6--------------8-------8------6-------------|
--9--9-9-9-9-9-9--7-7-7-7-7-7-7--9-9-9-9---9-9--7-7-7-7-7-7-7-|
--------------------------------------------------------------| 
--------------------------------------------------------------|
se repite dos veces pero en la seugnda vez no termina con el ultimo rasgueo que se ve ai sino con este:


-------------------|
-------------------|
--9----------------|
--9-9-9-9-9-9-9----|
-------------------|
-------------------|

riff 5: usa el palm mute d nuevo

-----------------------------------------------------------|
-----------------------------------------------------------|
--9--9-9-9-9-9-9---6--6-6-6-6-6-6---8--8-8-8-8-8-8---------|
--9--9-9-9-9-9-9---7--7-7-7-7-7-7---9--9-9-9-9-9-9----------
-----------------------------------------------------------|
-----------------------------------------------------------|


----------------------  igual q antes ----------------------|
---------------------- se repite 2    ----------------------|
--6--6-6-6-6-6-6------ veces          -9--9-9-9-9-9-9-------|
--7--7-7-7-7-7-7------                -9--9-9-9-9-9-9-------|
----------------------                ----------------------|
----------------------                ----------------------|

riff 6:


------------------|        --------------------|
-------5-------5--|        ------7--------7----|
---6-6-----6-6----|        --8-8------8-8------| x2
-7-------7--------| x2     -9-------9----------|
------------------|        --------------------|
------------------|        --------------------|





Calificar esta versión:
Aviso: Este fichero es trabajo propio de su transcriptor y representa su interpretación personal de la canción. El material contenido en esta página es para exclusivo uso privado, por lo que se prohibe su reproducción o retransmisión, así como su uso para fines comerciales.