Regresará Por Mi, Julissa (acordes)

Autor: cdfpicado | 16284 visualizaciones

asos7bdsosfmfm7gsos


 D#      G#     Fm7 A#7  D#    G#      Fm7   A#7
  me vestire de blanco   simbolo de puresa

   D#  G#               Fm7  A#7 D#          G#   Fm  A#7
  y con mis manos en alto    para que el mundo me vea

    B                   G#           D#  G# Fm  A#7
  como la novia que espera hasta el fin
                coro
  D#               G#    Fm7             A#7
 se abriran los cielos y aparecera mi rey

  D#               G#    Fm7             A#7
  vestido de gloria  regresara  por Mi 

  D#               G#    Fm7             A#7
  tendre la corona que me prometio al fin

  D#     G#    Fm7     A#7 D#       G#            Fm   A#7
 vivire a cada instante el dia enhelado en mi sueños

  D#     G#    Fm7     A#7 D#       G#            Fm   A#7
 y le dire al mirarle que nuestro amor es eterno

  B                    G#                      D#
 ya no sere  mas la novia sere su esposa  al fin

                                      coro
                         Regresara por Mi 


Solo

E||--------------------------|-------------------------------|----------------------------|
B||--------------------------|-------------------------------|----------------------------|
G||--12---------12----13-----|--15----15---------------------|------------------------15--|
D||--------13----------------|-----------------15----15------|---13----12----15-----------|
A||--------------------------|-------------------------------|----------------------------|
E||--------------------------|-------------------------------|----------------------------|


------------------------------|------------------------------|
------------------------------|------------------------------|
--13----10----12----13 --|--13-------------------------|
------------------------------|--------10----10----12----|
------------------------------|------------------------------|
------------------------------|------------------------------|



-------------------------|------------------------|-----------------||
-------------------------|------------------------|-----------------||
--------------------13---|--12----------10----12--|--13----10----||
--13----10----13---------|--------13--------------|-----------------||
-------------------------|------------------------|-----------------||
--------------------------|-----------------------|-----------------||
 





Calificar esta versión:
Aviso: Este fichero es trabajo propio de su transcriptor y representa su interpretación personal de la canción. El material contenido en esta página es para exclusivo uso privado, por lo que se prohibe su reproducción o retransmisión, así como su uso para fines comerciales.