Cuando Llora Mi Guitarra, Julio Jaramillo (tablatura)

Autor: Anónimo | 53340 visualizaciones



cuando llora mi guitarra

cancion de mil y una botellas
una de las que + me gusta...
estoy orgulloso de esta canciòn
pues es de un cantautor de mi jodida pero conforme patria.

en Em.
       Am                                                Em
e|--12-8--------------8--8---------8------8--8------8-------8vvv---
B|--12-8-10vvv----10-10-10----10--10-10--10-10--10-10-10-12-9vvv---
G|-----------------------------9------9----------9-----9-12--------
D|-----------------------------------------------------------------
A|-----------------------------------------------------------------
E|-----------------------------------------------------------------
                          B7
e|---7-7---7---7-7---7-------------------------------------
B|-8-8-8-8-8-8-8-8-8-8-8-10-7vvv---------------------------
G|-9-----9---9-----9---9-11-8vvv---------------------------
D|---------------------------------------------------------
A|---------------------------------------------------------
E|---------------------------------------------------------
                          Em  E7
e|---5-5---5---5-5-----10-8-7vvv---------------------------
B|-7-7-7-7-7-7-7-7-7-5-------------------------------------
G|-8-----8---8-----8-7-------------------------------------
D|---------------------------------------------------------
A|---------------------------------------------------------
E|---------------------------------------------------------
y luego se da otra vueltita lo mismo
y no se olviden que el ragueo
es vals lento.
deben escuchar el disco para que no se confundan
pero les aseguro que esta bien.

                 Em  E7
A.-Cansado de llamarte
                     Am
   con mi alma destrozada
                    C           B7            Em  E7
   comprendo que no vienes por que no quiere Dios.

                      Am 
B.-y al ver que inùtilmente
                   Em
   te envìo mis palabras
                  B7                Em      E7   
   llorando mi guitarra se deja oìr su voz
                      Am                   Em
   y al ver que inùtilmente te envìo mis palabras
                   B7                  Em-E7
   llorando mi guitarra se deja oìr su voz

CORO.
    Am                                         
   LLORA GUITARRA POR QUE ERES MI VOZ DE DOLOR
    Em                                      E7  
   GRITA DE NUEVO SU NOMBRE SI NO TE ESCUCHO
      Am                                           Em
   Y DILE QUE AUN LA QUIERO QUE AUN LA ESPERO QUE VUELVA
                                       B7
   QUE SI NO VIENE MI AMOR NO TIENE CONSUELO
                                   Em-E7
   QUE SOLITARIO SIN SU CARIÑO ME MUERO.
      Am                                           Em 
   GUITARRA TU QUE INTERPRETAS EN TI VIBRAR MI QUEBRANTO 
                                   B7
   TU QUE RECIBES EN TU MADERO MI LLANTO
                                  Em-E7
   LLORA CONMIGO SI NO LA VIERAS VOLVER.


ahi otra vez el intro x2
y se repite

B.-guitarra tu que interpretas...

CORO.
Y SE ACABÒ.

BUENO ESPERO QUE LES GUSTE

GRACIAS WENDY V. POR HACERME SOÑAR 
Y VER AL MUNDO DESDE EL ALCOHOL
Y FIERA DE ÈL... TE AGRADEZCO
TE AMO... Y TE ESPERO...
CUALQUIER SUGERENCIA, COMENTARIO O RECLAMO
AL [email protected]
divièrtanse.





Calificar esta versión:
Aviso: Este fichero es trabajo propio de su transcriptor y representa su interpretación personal de la canción. El material contenido en esta página es para exclusivo uso privado, por lo que se prohibe su reproducción o retransmisión, así como su uso para fines comerciales.