Mi Principio, Julieta Venegas (acordes)

Autor: Anónimo | 33668 visualizaciones

amdmg
INTRO: Am


Am             Dm
Un dia me voy a ir
G             Am
 Y no volvere jamas
               Dm
Prefiero la soledad
   G            Am
A vivir sin mi verdad


Am             Dm
Un dia me voy a ir
G                Am
Seguro me extrañaras
             Dm
Como ave de cuidad
      G            Am
Se va buscando la mar


ESTRIBILLO:

            Dm
Porque al final
G                 Am
 Aunque este feliz aqui
        Dm   G                    Am
debo emigrar, a un lugar lejos de aqui
      Dm
No me entiendas mal
          G           Am
Que no es cosa de los dos
     Dm                G
Parece el final pero es mi principio...



Am             Dm
Un dia me voy a ir
G             Am
 Y no volvere jamas
               Dm
Prefiero la soledad
   G            Am
A vivir sin mi verdad


soLO:

   Am               Dm              G               Am

E|-------0----0----------0-----1----0----------------0------|
B|----1----1----1---3-----------------3-----1----3----1-----|
G|-2-----------------------------------------------------2--|
D|----------------------------------------------------------|
A|----------------------------------------------------------|
E|----------------------------------------------------------|


E|-------0----0----------0-----1----0-----------------------|
B|----1----1----1----3-----------------3-----1--------------|
G|-2--------------------------------------------4---2-------|
D|----------------------------------------------------------|
A|----------------------------------------------------------|
E|----------------------------------------------------------|


ESTRIBILLO:


 Dm
Porque al final
G                 Am
 Aunque este feliz aqui
        Dm   G                    Am
debo emigrar, a un lugar lejos de aqui
      Dm
No me entiendas mal
          G           Am
Que no es cosa de los dos
     Dm                G
Parece el final pero es mi principio...
    Dm
No me entiendas mal
          G           Am
Que no es cosa de los dos
     Dm                G
Parece el final pero es mi principio...



Am             Dm
Un dia me voy a ir
G             Am
 Y no volvere jamas
               Dm
Prefiero la soledad
   G            Am
A vivir sin mi verdad
G          Am
Sin mi verdad
G         Am
Sin mi verdad
Calificar esta versión:
Aviso: Este fichero es trabajo propio de su transcriptor y representa su interpretación personal de la canción. El material contenido en esta página es para exclusivo uso privado, por lo que se prohibe su reproducción o retransmisión, así como su uso para fines comerciales.