Merceditas, Julia Elena Davalos (tablatura)

Autor: Elcrispi | 32082 visualizaciones



Parte 1:                                      
e-------0----5-|
b----1---------|
g-2------------|
d--------------|
a--------------|
e--------------|

e-3--1--3--1--3--1---5--1--0--1--0--1--0--3---0--0--0--1-----|
b--------------------------------------------3--3--3-----3--1|
g------------------------------------------------------------|
d------------------------------------------------------------|
a------------------------------------------------------------|
e------------------------------------------------------------|

Repetir Parte 1 una vez

Parte 2:
e--1-1-0--1-1-0---1-1-0---1-1-0--1-1-0--1-1-0-0------------------|
b-----------------------------------------------3--3--1--1--0--0-|
g-2------2-------1-------1------2------2------------------------2|
d----------------------------------------------------------------|
a----------------------------------------------------------------|
e----------------------------------------------------------------|

Repetir Parte 2 una vez





Comentarios del colaborador: Gracias a todos por ver esta tablatura espero que la saquen porque es muy dificil si son principiantes... Yo la saque de principiante hace 3 años y la verdad que me costo muchisimo, si tienen un profesor de guitarra diganle que les enseñe este tema que apesar de ser antiguo sacas muchisima velocidad en las manos, a mi me gusta el rock pero bueno, me la banco con tal de sacar velocidad.... Muchas Gracias *El Crispi*

Calificar esta versión:
Aviso: Este fichero es trabajo propio de su transcriptor y representa su interpretación personal de la canción. El material contenido en esta página es para exclusivo uso privado, por lo que se prohibe su reproducción o retransmisión, así como su uso para fines comerciales.