Some Heads Are Gonna Roll, Judas Priest (acordes)

Autor: viejoroker | 26009 visualizaciones

aa5bb5ccsoscsos5c-ec5csus2ddsosd5ee5
SOME HEADS ARE GONNA ROLL


Riff ritmo 1
------------------------------
------------------------------
-----------4-----5------------ x 4
---2-------2-----2---0-5-4---- 
-------------------3-------2--
-----0-0-0---0-0-----------

	 E5	    C/E    E5         C/E   
You can look to de left, look to de right, 

E5  E5/B             Csus2
but you will live in danger tonight

Detalle Tablatura:
----------------------------------------0-
----------------------------------------3-
---------4-----5-------4-----5--5?5-----0-
---------2-----2-------2-----2--2?2-----0- 
------------------------------?-2-2?0-2-3-
--0-0-0----0-0---0-0-0---0-0--------------

	 E5	 C/E    E5              C/E   
When the enemy comes you will never be heard. 

E5     E5/B               Csus2
He?ll blow your mind and not say a word

B5              D5 B5            
Blinding lights     
             C5 D5 A5 B5   
flash in colors        

B5              D5 B5            
sleep less nights

A   B  C            C#    D                  D#   
If the man with the power can?t keep it under control

---------------
--3-7-3-5-3----

      E5                  D5  E5
Some heads are gonna roll
      E5                  Csus2
Some heads are gonna roll
      E5                  D5  E5
Some heads are gonna roll
      E5                  Csus2
Some heads are gonna roll


Detalle Tablatura Estribillo:
---------------------------------------0-
---------------------------------------3-
-4-------4-------2-2-4--4-------4------0-
-2-------2-------0-0-2--2-------2------0- 
----------------------------------?0-2-3-
--0-0-0----0-0-0----------0-0-0----------


SE REPITE TODO CON la siguiente estrofa y estribillo:
The power-mad freaks who are
Ruling the earth
Will show how little they think you're worth
With animal lust they'll
Devour your life
And slice your word to bits like a knife
One last day burning hell fire
You're blown away
If the man with the power
Can't keep it under control 

Some heads are gonna roll
Some heads are gonna roll
Some heads are gonna roll
Some heads are gonna roll 

C5                   E
Know what it's like           C5
When you're taken for granted
There goes your life
B5 C5 C#5 D5
It's so underhanded
SOLO GUITARRA. ACOMPAÑAMIENTO COMO ESTRIBILLO
E5   D5  E5  
E5      Csus2 [4 veces]

C5                 C#    
If the man with the power
D                    
Can't keep it under control 

---------------
--3-7-3-5-3----

Some heads are gonna roll
Some heads are gonna roll
Some heads are gonna roll
Some heads are gonna roll

------------------------------
------------------------------
-----------4-----5------------ x 3
---2-------2-----2---0-5-4---- 
-------------------3-------2--
-----0-0-0---0-0-----------

------------------------------
------------------------------
-----------4-----------------
---2-------2----------------- 
------------------6----------
-----0-0-0---0-0----7-8-5-7-3

Repetir hasta el final



Partitura por: Rulos
Calificar esta versión:
Aviso: Este fichero es trabajo propio de su transcriptor y representa su interpretación personal de la canción. El material contenido en esta página es para exclusivo uso privado, por lo que se prohibe su reproducción o retransmisión, así como su uso para fines comerciales.