Pain Killer, Judas Priest (tablatura)

Autor: Vanrollo21 | 41193 visualizaciones

INTRO:
e|-----|---------------------------------|-------------------------------|
B|--5--|---------------------------------|-------------------------------|
G|-<4>-|---------------------------------|-------------------------------|
D|-----|---------------------------------|-------------------------------|
A|-----|-7-----5-----7-----8-----7-------|-7-----5-----7-----8-----8-8---|
E|-----|---0-0---0-0---0-0---0-0---0-5\3-|---0-0---0-0---0-0---0-0-6-6---|

SOBRE RIFF:

Faster than a bullet 
Terrifying scream 
Enraged and full of anger 
He's half man and half machine 

Rides the Metal Monster 
Breathing smoke and fire 
Closing in with vengeance soaring high 

Base  del estribillo:

G-------------------------------------------------|---------|
D-------------------------------------------------|---0-----|
A-0---0---0---0---0---0---0---0---0---0---0---0---|-0---3-2-|
E---5---5---5---5---5---5---5---5---5---5---5---5-|---------|

He is the pain killer
This is the pain killer

Planets devastated 
Mankind's on its knees 
A saviour comes from out the skies 
In answer to their pleas 

Through boiling clouds of thunder 
Blasting bolts of steel 
Evils going under deadly wheels 

He is the Painkiller 
This is the Painkiller 

Faster than a laser bullet 
Louder than an atom bomb 
Chromium plated boiling metal 
Brighter than a thousand suns 

Flying high on rapture 
Stronger free and brave 
Nevermore encaptured 
They've been brought back from the grave 

He is the Painkiller 
This is the Painkiller 
Wings of steel Painkiller 
Deadly wheels Painkiller

Comentarios del colaborador: Bueno, espero que les sirva

Calificar esta versión:
Aviso: Este fichero es trabajo propio de su transcriptor y representa su interpretación personal de la canción. El material contenido en esta página es para exclusivo uso privado, por lo que se prohibe su reproducción o retransmisión, así como su uso para fines comerciales.