Hellriders, Judas Priest (tablatura)

Autor: culos | 44124 visualizaciones

|-----------------------------------------|
|-----------------------------------------|
|-----------------------------------------|   x 2
|-------------------------------5-5-5-5---|
|---2-2-2-2-2-2-2-2-2-2-2-2-2---3-3-3-3---|
|---0-0-0-0-0-0-0-0-0-0-0-0-0-------------|

|-------------------11------|
|---------------------------|
|---------------------------|  esto va despúes de lo de arriba y
|---------------------------|  tiene que ser muy muy rápido si 
|---------------------------|  no quieren atrazarse de la
|---0--2--0--3--0-----------|  canción...


Lamentablemente no pude sacar el solo pero algo es algo. :(
Calificar esta versión:
Aviso: Este fichero es trabajo propio de su transcriptor y representa su interpretación personal de la canción. El material contenido en esta página es para exclusivo uso privado, por lo que se prohibe su reproducción o retransmisión, así como su uso para fines comerciales.