Hell Bent For Leather, Judas Priest (tablatura)

Autor: moonchild | 20923 visualizaciones

JUDAS PRIEST-HELL BRENT FOR LEATHER

Intro:
E |-----------------------------------------------------------|
H |-----------------------------------------------------------|
G |-----------------------------------------------------------|
D |-----------------------------------------------------------|
A |-2--3--4--5--6--7--3--2------------------------------------|
E |-0--1--2--3--4--5--1--0------------------------------------|


VERSO:
E |-----------------------------------------------------------|
H |-----------------------------------------------------------|
G |-------------5-7-----5-7-5-------------5-7-----5-7-5-4-5-4-|
D |---7-----7---5-7-----5-7-5---7-----7---5-7-----5-7-5-4-5-4-|
A |-0---0-0---0-----0-0-------0---0-0---0-----0-0-------------|
E |-----------------------------------------------------------|

E |-----------------------------------------------------------|
H |-----------------------------------------------------------|
G |-------------5-7-----5-7-5-------------5-7-----5-7-5-4-5-4-|
D |---7-----7---5-7-----5-7-5---7-----7---5-7-----5-7-5-4-5-4-|
A |-0---0-0---0-----0-0-------0---0-0---0-----0-0-------------|
E |-----------------------------------------------------------|

E |-----------------------------------------------------------|
H |-----------------------------------------------------------|
G |-------------5-7-----5-7-5-------------5-7-----5-7-5-4-5-4-|
D |---7-----7---5-7-----5-7-5---7-----7---5-7-----5-7-5-4-5-4-|
A |-0---0-0---0-----0-0-------0---0-0---0-----0-0-------------|
E |-----------------------------------------------------------|

E |-----------------------------------------------------------|
H |-----------------------------------------------------------|
G |-------------5-7-----5-7-5-------------5-7-----5-7-5-4-5-4-|
D |---7-----7---5-7-----5-7-5---7-----7---5-7-----5-7-5-4-5-4-|
A |-0---0-0---0-----0-0-------0---0-0---0-----0-0-------------|
E |-----------------------------------------------------------|


PRE-CORO
E |-------------------------|---------------------------------|
H |-------------------------|---------------------------------|
G |-------------------------|---------------------------------|
D |-7--5--7--5--7--5--7/5-5-|-7--5--7--5--7-7-8-8-9-12-12-12--|
A |-5--5--5--5--5--5--5/3-3-|-5--5--5--5--5-5-6-6-7-10-10-10--|
E |-------------------------|---------------------------------|


CORO:
E |-----------------------------------------------------------|
H |-----------------------------------------------------------|
G |-----------------------------------------------------------|
D |-2--2-2-2-2-2-2-2-2-2-2-2-2-2-2----------2-5-----0-----2---|
A |-0--0-0-0-0-0-0-0-0-0-0-0-0-0-0----2-5-3-------0-----2-----|
E |---------------------------------3-----------1-----3-------|

E |-----------------------------------------------------------|
H |-----------------------------------------------------------|
G |-----------------------------------------------------------|
D |-2--2-2-2-2-2-2-2-2-2-2-2-2-2-2----------2-5-----0-----2---|
A |-0--0-0-0-0-0-0-0-0-0-0-0-0-0-0----2-5-3-------0-----2-----|
E |---------------------------------3-----------1-----3-------|


VERSO:
E |-----------------------------------------------------------|
H |-----------------------------------------------------------|
G |-------------5-7-----5-7-5-------------5-7-----5-7-5-4-5-4-|
D |---7-----7---5-7-----5-7-5---7-----7---5-7-----5-7-5-4-5-4-|
A |-0---0-0---0-----0-0-------0---0-0---0-----0-0-------------|
E |-----------------------------------------------------------|

E |-----------------------------------------------------------|
H |-----------------------------------------------------------|
G |-------------5-7-----5-7-5-------------5-7-----5-7-5-4-5-4-|
D |---7-----7---5-7-----5-7-5---7-----7---5-7-----5-7-5-4-5-4-|
A |-0---0-0---0-----0-0-------0---0-0---0-----0-0-------------|
E |-----------------------------------------------------------|


PRE-CORO:
E |-------------------------|---------------------------------|
H |-------------------------|---------------------------------|
G |-------------------------|---------------------------------|
D |-7--5--7--5--7--5--7/5-5-|-7--5--7--5--7-7-8-8-9-12-12-12--|
A |-5--5--5--5--5--5--5/3-3-|-5--5--5--5--5-5-6-6-7-10-10-10--|
E |-------------------------|---------------------------------|


CORO:
E |-----------------------------------------------------------|
H |-----------------------------------------------------------|
G |-----------------------------------------------------------|
D |-2--2-2-2-2-2-2-2-2-2-2-2-2-2-2----------2-5-----0-----2---|
A |-0--0-0-0-0-0-0-0-0-0-0-0-0-0-0----2-5-3-------0-----2-----|
E |---------------------------------3-----------1-----3-------|

E |-----------------------------------------------------------|
H |-----------------------------------------------------------|
G |-----------------------------------------------------------|
D |-2--2-2-2-2-2-2-2-2-2-2-2-2-2-2----------2-5-----0-----2---|
A |-0--0-0-0-0-0-0-0-0-0-0-0-0-0-0----2-5-3-------0-----2-----|
E |---------------------------------3-----------1-----3-------|



E |---------------------------|-------------|-----------------|
H |---------------------------|-------------|-----------------|
G |---------------------------|-------------|-----------------|
D |---------------------------|-2--9-----7--|-2-2-2-2-2-etc.--|
A |-2--3--4--5--6--7--3--2--2-|-0--7--5--5--|-0-0-0-0-0-etc.--|
E |-0--1--2--3--4--5--1--0--0-|----0--3-----|-----------------|


SOLO:
E |-h12p5h8--h12p5h7--h12p4h7--h12p3h7------------------------|
H |-----------------------------------------------------------|
G |-----------------------------------------------------------|
D |-----------------------------------------------------------|
A |-----------------------------------------------------------|
E |-----------------------------------------------------------|

E |-----------------------------------------------------------|
H |-----------------------------------------------------------|
G |-----------------------------------------------------------|
D |-----------------------------------------------------------|
A |-2--3--4--5--6--7--3--2------------------------------------|
E |-0--1--2--3--4--5--1--0------------------------------------|

BATERIA

CORO:
E |-----------------------------------------------------------|
H |-----------------------------------------------------------|
G |-----------------------------------------------------------|
D |-2--2-2-2-2-2-2-2-2-2-2-2-2-2-2----------2-5-----0-----2---|
A |-0--0-0-0-0-0-0-0-0-0-0-0-0-0-0----2-5-3-------0-----2-----|
E |---------------------------------3-----------1-----3-------|

E |-----------------------------------------------------------|
H |-----------------------------------------------------------|
G |-----------------------------------------------------------|
D |-2--2-2-2-2-2-2-2-2-2-2-2-2-2-2----------2-5-----0-----2---|
A |-0--0-0-0-0-0-0-0-0-0-0-0-0-0-0----2-5-3-------0-----2-----|
E |---------------------------------3-----------1-----3-------|

E |-----------------------------------------------------------|
H |-----------------------------------------------------------|
G |-----------------------------------------------------------|
D |-2--2-2-2-2-2-2-2-2-2-2-2-2-2-2----------2-5-----0-----2---|
A |-0--0-0-0-0-0-0-0-0-0-0-0-0-0-0----2-5-3-------0-----2-----|
E |---------------------------------3-----------1-----3-------|

E |-----------------------------------------------------------|
H |-----------------------------------------------------------|
G |-----------------------------------------------------------|
D |-2--2-2-2-2-2-2-2-2-2-2-2-2-2-2----------2-5-----0-----2---|
A |-0--0-0-0-0-0-0-0-0-0-0-0-0-0-0----2-5-3-------0-----2-----|
E |---------------------------------3-----------1-----3-------|

final:
E |------------------------------------------------------------|
H |------------------------------------------------------------|
G |------------------------------------------------------------|
D |-9-9--7--5-5--4-5-4-2--7-5---2------------------------------|
A |-7-7--5--3-3--2-3-2-0--5-3-5-0------------------------------|
E |---------------------------3--------------------------------|

Comentarios del colaborador: CHIDO BANDA

Calificar esta versión:
Aviso: Este fichero es trabajo propio de su transcriptor y representa su interpretación personal de la canción. El material contenido en esta página es para exclusivo uso privado, por lo que se prohibe su reproducción o retransmisión, así como su uso para fines comerciales.