Dont Have To Be Old, Judas Priest (tablatura)

Autor: ricardrock | 33600 visualizaciones

Dont Have To Be Old


1- ^ ligado
2- / slide              
3- b bend
4- ~ vibrato
5- x nota falsa 
6- * harmônico                                             
Intro.         2x                             (8x tudo)
E|---------5---5---3~----------|----3---2~------------------||
B|---------5---5---3~----------|----3---3~------------------||
G|-----------------------------|----------------------------||
D|-----------------------------|----------------------------||
A|-0---0-----------------------|----------------------------||
E|-----------------------------|----------------------------||         
             
Frase 1
E|----------------------------------------------------------||
B|-------------------------------------8---8---7~-----------||
G|-2~--7~---------------2~--7~---------7---7---7~-----------||
D|-2~--7~---------------2~--7~------------------------------||
A|-0---0----------------0---0-------------------------------||
E|----------0---3~--0---------------------------------------||

Frase 2         2x
E|-----------------------------|----------------------------||
B|-----------------------------|----------------------------||
G|-----------------------------|----------------------------||
D|-2---2-------------------7---|------5-----Intro-----------||
A|-2---2---------------5---5---|------3---------------------||
E|-0---0---0---1---2---3-------|----------------------------||

Solo:
E|-----------------------------------------------------------|
B|-20b---20b------20b---20---17---20------17--------17-------|
G|---------------------------------------------19--------19--|
D|-----------------------------------------------------------|
A|-----------------------------------------------------------|
E|-----------------------------------------------------------|


E|---------------------|-10---10b---10b--b17^-20^-17^--------|
B|---------------------|---------------------------------20--|
G|-17---19---17--------|-------------------------------------|
D|----------------19---|-------------------------------------|
A|---------------------|-------------------------------------|
E|---------------------|-------------------------------------|

                               2x
E|-17------------------|---------------|---------------------|
B|------20---17---20b--|---------------|---------------------|
G|---------------------|-5-------------|---------------------|
D|---------------------|-----7---5---7-|---------------------|
A|---------------------|---------------|-6---5---3---5---3/--|
E|---------------------|---------------|---------------------|

         2x
E|-17^-12^-15^-12^-|------12---17^-12^-15^-12^--------12-----|
B|-----------------|-15--------------------------15----------|
G|-----------------|-----------------------------------------|
D|-----------------|-----------------------------------------|
A|-----------------|-----------------------------------------|
E|-----------------|-----------------------------------------|


E|-------------------------------|---------------------------|
B|-13^-12^--------12-------------|---------------------------|
G|-----------14--------12---14---|---------------------------|
D|-------------------------------|-5---7---5/-7---7~---------|
A|-------------------------------|---------------------------|
E|-------------------------------|---------------------------|

                                                   3x
E|-17-------------17---20^-17---20b---17-|-20--17------------|
B|------20---17--------------------------|---------20--17----|
G|---------------------------------------|----------------19b|
D|---------------------------------------|-------------------|
A|---------------------------------------|-------------------|
E|---------------------------------------|-------------------|

                         2x
E|-20---17---|-----------------------|-----------------------|
B|-----------|---20---17---18---17---|------------------15---|
G|-----------|-----------------------|---19---17-------------|
D|-----------|-----------------------|-------------19--------|
A|-----------|-----------------------|-----------------------|
E|-----------|-----------------------|-----------------------|


E|----------------------------------------------------------||
B|-16---17---18b---18b---18b---18b---18b--------Frase2------||
G|----------------------------------------------------------||
D|----------------------------------------------------------||
A|----------------------------------------------------------||
E|----------------------------------------------------------||
Calificar esta versión:
Aviso: Este fichero es trabajo propio de su transcriptor y representa su interpretación personal de la canción. El material contenido en esta página es para exclusivo uso privado, por lo que se prohibe su reproducción o retransmisión, así como su uso para fines comerciales.