Between The Hammer & The Anvil, Judas Priest (tablatura)

Autor: ricardrock | 16249 visualizaciones

Riff A.1
|-------------------------------------------|
|-------------------------------------------|
|-------------------------------------------|
|--7----/----4----\----10----/----4---------|
|--7----/----4----\----10----/----4---------|
|--5----/----2----\----8-----/----2---------|

Riff A.2
|-------------------------------------------|
|-------------------------------------------|
|--5----/----2----\----8-----/----2---------|
|--5----/----2----\----8-----/----2---------|
|--7----/----4----\----10----/----4---------|
|--5----/----2----\----8-----/----2---------|

Riff B.1
|----------------------------------------|
|----------------------------------------|
|----------------------------------------|
|------5------5------5------5----4-------|
|------7------7------7------7----5-------|
|--0-0----0-0----0-0----0-0----0---------|

Riff B.2
|-------------------------------|
|-------------------------------|
|-------------------------------|
|------5-----5-----5-4-7--------|
|------7-----7-----7-5-5--------|
|--0-0---0-0---0-0--------------|

Riff C
|-------------------------------------------------------------------|
|-------------------------------------------------------------------|
|-------------------------------------------------------------------|
|------5-----5-----5-----5---4------5-----5-----5-----5--7----------|
|------7-----7-----7-----7---5--3-3-3-3-3-3-3-3-3-3-3-3--5----------|
|--0-0---0-0---0-0---0-0---0----------------------------------------|

Riff D
|------------------|
|------------------|
|--5----2-2--4-----|
|--5----2-2--4-----|
|--3----0-0--2-----|
|------------------|

Riff E
|-------------------------|
|-------------------------|
|----9-8--5-4-------------|
|----9-8--5-4-------------|
|----7-6--3-2----5-4------|
|--0-----------0-3-2------|

Riff F
|------------------------------------------|
|------------------------------------------|
|------------------------------------------|
|------------------------------------------|
|----5---5-4---5-4---5-4---5-4---5-4-5-----|
|--0-3-0-3-2-0-3-2-0-3-2-0-3-2-0-3-2-3-----|

Riff G
|---------------------------------------------------------------|
|---------------------------------------------------------------|
|--5---3------------------------------------5-------------------|
|--5---3---5----8--5--6----3---3-6-5---5----5--5-4-2-5----------|
|--3---1---5----8--5--6----3---3-6-5---5----3--5-4-2-5----------|
|----------3----6--3--4----1---1-4-3---3-------3-2-0-3----------|

Riff H
|---------------------|
|---------------------|
|---------------------|
|--5-7---5-7--2-4-----|
|--3-5---3-5--0-2-----|
|---------------------|

Riff I
|------------------------------------------|
|------------------------------------------|
|--9----/----6----\----12----/-----9-------|
|--9----/----6----\----12----/-----9-------|
|--7----/----4----\----10----/-----7-------|
|------------------------------------------|
Calificar esta versión:
Aviso: Este fichero es trabajo propio de su transcriptor y representa su interpretación personal de la canción. El material contenido en esta página es para exclusivo uso privado, por lo que se prohibe su reproducción o retransmisión, así como su uso para fines comerciales.