Ella Ya Me Olvido, Juanes (acordes)

Autor: Anónimo | 21659 visualizaciones

Am                  Dm
Ella, ella ya me olvidó
                    Lam
yo, yo la recuerdo ahora
E7                  Am   
Era, como la primavera,
               Dm
su anochecido pelo,
                    Am
su voz dormida, el beso,
                     E7
y junto al mar la fiebre,
                     Am
que me llevó a su entraña,
                 E7
y soñamos con hijos,
                 Am A7
que nos robó la playa.

Coro           
           
Dm     E7           Am
Ella, ella ya me olvidó
Dm  E7                Am   Am B C
yo, yo no puedo olvidarla


   Dm                 Am
E||-----------------|-----------------|
B||-----------------|-----------------|
G||-----------------|-----------------|
D||-----------------|-----------------|
A||-5-5-7-8-7-5-----|--------------7--|
E||-----------------|-5-5-7-8-7-5-----|
                                   E7
                                   yo,
                   Am         
yo no puedo olvidarla




Am                  Dm
Ella, ella ya se olvidó
                     Am
de aquellas caminatas
                 E7
junto a la costanera,
                 Am A7
y el pibe que miraba.


Coro           
           
Dm     E7           Am
Ella, ella ya me olvidó
Dm  E7                Am   Am B C
yo, yo no puedo olvidarla


   Dm                 Am
E||-----------------|-----------------|
B||-----------------|-----------------|
G||-----------------|-----------------|
D||-----------------|-----------------|
A||-5-5-7-8-7-5-----|--------------7--|
E||-----------------|-5-5-7-8-7-5-----|
                                   E7
                                   yo,
                   Am         
yo no puedo olvidarla
           
          
Am 577555
Dm x57765
E7 076750
B  799699
C  8,10,10,988

Fuente original: LaCuerda
Colaborador original: J. Andrés Cardona [andrescardona25@hotmail.com]
Calificar esta versión:
Aviso: Este fichero es trabajo propio de su transcriptor y representa su interpretación personal de la canción. El material contenido en esta página es para exclusivo uso privado, por lo que se prohibe su reproducción o retransmisión, así como su uso para fines comerciales.