El Yerbatero, Juanes (acordes)

Autor: llthomasll | 29447 visualizaciones

ambmdmefg
INTRO

e|---8--5h8p5-----------5-----8-8-8--5h8p5-----------5----|
B|------------8--5h8p5-----5---------------8--5h8p5-----5-|
G|--------------------------------------------------------|
D|--------------------------------------------------------|
A|--------------------------------------------------------|
E|--------------------------------------------------------|

e|---------5---------------------5------------------------|
B|---------5--7----------5-------5--7----------5----------|
G|-----5h7----7--5h7p5---5----------7--5h7p5---5----------|
D|---7-----------------7----7----------------7----7-------|
A|--------------------------------------------------------|
E|--------------------------------------------------------|

e|--8-8-8--5h8p5-----------5------8-8-8--5h8p5-----------5----|
B|---------------8--5h8p5-----5----------------8--5h8p5-----5-|
G|------------------------------------------------------------|
D|------------------------------------------------------------|
A|------------------------------------------------------------|
E|------------------------------------------------------------|

e|----------------------------------------------------------------|
B|--------7b[9]r7-------7b[9]r7-------7b[9]r7b[9]r7b[9]r7b[9]r7---|
G|----5H7-7b[9]r7---5H7-7b[9]r7---5H7-7b[9]r7b[9]r7b[9]r7b[9]r7---|
D|--7-------------7-------------7---------------------------------|
A|----------------------------------------------------------------|
E|----------------------------------------------------------------|

Am
Te traigo el remedio para este mal de amor que lo estremece
               Dm
Y no se merece sufrir si su pareja le dejó
Am
Tengo toda clase de brebajes, plantas medicinales
                      Dm
Los he traido desde muy lejanos bosques hasta aquí

Am
Soy yerbatero
                        G
Vengo a curar su mal de amores
                     F
Soy yo que quita los dolores
                   Am
Y habla con los animales
                      G
Digame de que sufre usted
                      F
Que yo la tengo un brebaje
                       E [riff 1] A|---7---5---3---2---|
Que le devuelve el tono y lo pone bien
Am
Bien, bien, bien, bien, bien bien

Si a usted señor lo deja su mujer
Úntese en el alma pomadita de clavel
Y para la señora que el marido ha sido infiel
[riff 1]
No se preocupe busquese uno usted también

[intro]

Am
Sufre de depresión, mal de amor
Lleva varias noches sin dormir
                               Dm
Y su días no van bien en el trabajo
Bajo

Am
Anda moribundo, preocupado, cabizbajo, desenamorado
                                    Dm
Le tengo la solución si le duele el corazón
No soy doctor

Am
Soy yerbatero
                         G
Vengo a curar su mal de amores
                       F
Soy yo que quita los dolores
                   Am
Y habla con los animales
                      G
Digame de que sufre usted
                      F
Que yo la tengo un brebaje
                        [riff 1]
Que le devuelve el tono y lo pone bien
Am
Bien, bien, bien, bien, bien bien

Am
Si a usted señor lo deja su mujer
Úntese en el alma pomadita de clavel
Y para la señora que el marido ha sido infiel
[riff 1]
No se preocupe busquese uno usted también

Bm
Bien, bien, bien, bien, bien bien

Am
Si a usted señor lo deja su mujer
Úntese en el alma pomadita de clavel
Y para la señora que el marido ha sido infiel
[riff 1]
No se preocupe busquese uno usted también

[intro]

Soy yerbatero
Soy yerbatero
Soy yerbatero
Calificar esta versión:
Aviso: Este fichero es trabajo propio de su transcriptor y representa su interpretación personal de la canción. El material contenido en esta página es para exclusivo uso privado, por lo que se prohibe su reproducción o retransmisión, así como su uso para fines comerciales.