Tarjetitas, Juan Fernando Velasco (acordes)

Autor: smith619 | 28475 visualizaciones

aa5ambbmcdd5ee5emffsosgg5


Intro: G ? Bm ? Em - D ? Em ? C ? G ? Em ? G - D

e] |---------15-14-----10-12---15-14-12-10---------10/13---|
b] |--6/8---------------------------------------12---------|
g] |-------------------------------------------------------| 
d] |-------------------------------------------------------|
a] |-------------------------------------------------------|
e] |-------------------------------------------------------|

e] |--10h12-10---------------15-14-12----------------------|
b] |-----------8---8/10---------------10--8---8/10---------|
g] |-----------------------------------------------11------| 
d] |-------------------------------------------------------|
a] |-------------------------------------------------------|
e] |-------------------------------------------------------|


G                D       Em       C
  A donde se han ido tus ganas de
           G             Am    D
ser una persona imprescindible
            C             G    C
Donde has escondido tus deseos
      G               Am    A9
Tus anhelos de días mejores
D                  C              G
  Es que te han comprado con animalitos
C              G
Con palabras vacías
    Am             D
Con tarjetitas de amor


Ahora que ya no estás a mi lado
y que tu vida me sabe ajena
ahora que ya no te interesan más
las cosas simples que te ofrecía
ahora que ellos te desean
recuerda que yo era tuyo y que creía en tí


CORO [Segunda guitarra con 5tas en los respectivos acordes]:

G          D   F                  C
  Esto es así, no siempre se acierta, no
G            D         F                  C
  yo que te amaba y tú nunca pudiste entenderlo, no
G          D   F           C
  Pero tal vez te has dado cuenta ya
G              D                F        C               G
  que esto de amar es más complicado que dar regalos y besos


A5      E5      G5          D5
No me digas que vuelves a aparecer
A5         E5         G5       D5  E5 
siempre pidiendo y tú no sabes dar


Segunda guitarra con quintas en los mismos acordes:

B        F#   A              E
Esto es así,  no siempre se acierta, no
B          F#        A                  E
yo que te amaba y tú nunca pudiste entenderlo, no
B        F#   A           E
Pero tal vez  te has dado cuenta ya
B            F#               A        E               B
que esto de amar es más complicado que dar regalos y besos


Termina con:
e] |------------------------12-11--------------|
b] |------------------------------12--------12-|
g] |-----8-9-9/11---9/8--------------11-9-8----| 
d] |--9-----------------9----------------------|
a] |-------------------------------------------|
e] |-------------------------------------------|





Calificar esta versión:
Aviso: Este fichero es trabajo propio de su transcriptor y representa su interpretación personal de la canción. El material contenido en esta página es para exclusivo uso privado, por lo que se prohibe su reproducción o retransmisión, así como su uso para fines comerciales.