El Gigante, Juan Carlos Baglietto (acordes)

Autor: Anónimo | 17266 visualizaciones

am7bm7cdd9emgg-b
 Intro

e--3-2-------------0-2-3-------|--0------------0---1-------------------------
B---------------0---------3--3-|-----3---1--3------0--------------------------
G------------0-----------------|-------------------0----4----2---------------
D--2---------------------------|-------------------0-----------------------
A--------3----------------2----|---------0---------2------------------------
E------------------------------|-------------------3-----------------------
                         Bm7		Am7 	   G	

e----------------3---------------|---0----------------1-----------------------
B----------------2---------------|---1----------------0---0--1h0-1-3---1--0---
G----------------3---4-----2-----|---0---0h2h0--------0--0--------------------
D--2---2-4-5-----2---------------|---2---------2h0----0-----------------------
A--2-----------------------------|---3----------------2------0-----2---0------
E--0-----------------------------|--------------------3-------------------2---
   Em                                C 		      G	

e-----------|
B-3--1---0--|
G-----------|
D-----------|X2
A-2--0------|
E--------3--|

[Todo con arpegio]

      G                 C  G/B  
Un gigante de ojos azules
Am7		     D D4 D D9 D	
amaba a una mujer pequeña
Em                       Am7          
que su sueño era una casita
C                    D D4 D9 D
pequeña como para ella
Em                            Bm7    [pausa]
que tuviera en su frente un jardín
       C    D        G
un jardín con madreselvas.


[Repite intro 1 vez]



Un gigante de ojos azules
amaba a una mujer pequeña
que muy pronto ya se ha cansado
de tan desmesurada empresa
que no terminaba en jardines
jardines con madreselvas.


[Repite intro 1 vez]


Adios ojos azules, dijo,
Y con gracia muy voltereta
del brazo de un enano rico
entró en la casita pequeña
que en el frente tenía un jardín
un jardín con madreselvas.


[Repite intro 1 vez]


El gigante comprende ahora
que amores de tanta grandeza
no caben ni siquiera muertos
en esas casas de muñecas
que en el frente tienen jardines
jardines con madreselvas. 

Fuente original: LaCuerda
Colaborador original: Gato [fgattino@cordobamail.com.ar]
Calificar esta versión:
Aviso: Este fichero es trabajo propio de su transcriptor y representa su interpretación personal de la canción. El material contenido en esta página es para exclusivo uso privado, por lo que se prohibe su reproducción o retransmisión, así como su uso para fines comerciales.