Todo Me Alcanza, Jovenes Pordioseros (acordes)

Autor: Anónimo | 27277 visualizaciones

fa
             La5#           Fa                 La5#     Fa      
E|-9-9--9-9---6--------|-9-9----------|9-9--9-9--6-----------||
B|-8-8--8-8---6--------|-8-8----------|8-8--8-8--6-------6-6-||
G|--------------8-6<---|--------6-9<--|-----------8-6<-------||
D|------------------8-8|-----6-8------|--------------8-8-----||
A|---------------------|--------------|----------------------||
E|---------------------|--------------|----------------------||
          x 2               < = ESTIRAR 

La5#
Ya te conte que estube mal

Re5#
por un antuguo amor,

La5#
ahora que estoy con vos

Re5#
me cordura esta Knoc Out,

La5#
ahora que lo pienso

Re5#
ya tengo a quien cantar,    

        Fa
todo me alcanza

                   La5#       Fa
para decirte lo que siento.


Tus ojos me gustaron 
desde el día en que te vi,
tu boca me seduce
y me pierdo cuando hablas,
ahora que lo pienso
ya tengo a quien cantar,
Todo me alcanza
para decirte lo que siento.

Arpegio en RE# - DO# [REPITE UN PAR DE VECES]

Te invito a tomar
un trago de mi copa,
quiero que seas vos
la dueña de este amor,
si vos no me mentis 
yo te voy a cuidar,
todo me alcanza
para decirte lo que siento,
Todo me alcanza...

E|-9-9--9-9--6-||
B|-8-8--8-8--6-||


Aguante los Jovenes!! Saludos!!
Calificar esta versión:
Aviso: Este fichero es trabajo propio de su transcriptor y representa su interpretación personal de la canción. El material contenido en esta página es para exclusivo uso privado, por lo que se prohibe su reproducción o retransmisión, así como su uso para fines comerciales.