Start Me Up, Jovenes Pordioseros (tablatura)

Autor: Anónimo | 43732 visualizaciones

Intro
e----------------------------------------------------------------------|
b----------------------------------------------------------------------|
g----------------------------------------------------------------------|
d-------10--10-10---10--10-10--10--10-10-------------------------------|
a-------7---8--8----7---8--8---7---8--8--------------------------------|
e----------------------------------------------------------------------|

e----------------------------------------------------------------------|
b----------------------------------------------------------------------|
g----------------------------------------------------------------------|
d----------------------------------------------------------------------|
a------8---10---8---10--8---8--10--8---8--10---------------------------|
e------6---6----6---6---6---6--6---6---6--6----------------------------|

Play both again till the chorus

e----------------------------------------------------------------------|
b----------------------------------------------------------------------|
g----------------------------------------------------------------------|
d--------------------------------10--10--12---10---10--12--------------|
a------10--10--12--10--10--12----8---8---8----8----8---8---------------|
8-------8---8---8---8---8----------------------------------------------|
Play twice then play

e----------------------------------------------------------------------|
b----------------------------------------------------------------------|
d----------------------------------------------------------------------|
a----------------------------------------------------------------------|
e--0--7--8-~~~~~~~---0--7--8-~~~~~~~--0-7--8---------------------------|
Calificar esta versión:
Aviso: Este fichero es trabajo propio de su transcriptor y representa su interpretación personal de la canción. El material contenido en esta página es para exclusivo uso privado, por lo que se prohibe su reproducción o retransmisión, así como su uso para fines comerciales.