Just My Imagination, Jovenes Pordioseros (tablatura)

Autor: Anónimo | 33646 visualizaciones

INTRO:  A#   D#   (X4)


A#
miro por mi ventana y la veo pasar
A#                D#          A#  D#
me digo q soy un tipo con suerte
A#               D#               A#  D#
tener una chica asi es como un sueño
    A#                  D#                 A#          D# D#
de todas las chicas que hay ella es la que más ne quiere


ESTRIBILLO:
       A#                  D#
I was just my imagination, one again
A#                D#
running away with me
       A#
I was just my imagination,
A#           D#
running away me


A#                               RIFF 1
si nos casamos vamos a tener familia
A#               RIFF 2
dos chicos para vos porque no dos chicas para mi
A#                D#               A# D# RIFF 1
te digo solo una cosa tengo en la mente
A#               D#               A# D# D#
siempre todo lo quise siempre lo tuve

RIFF 1                        RIFF 2

------------------||  ||--------|------------------|
------------------||  ||--------|------------------|
-----3-5^-7-3-5-3-||  ||3-5^-7-3|-6^6^-8-8-5-3-5-3-|
-3-5--------------||  ||--------|------------------|
------------------||  ||--------|------------------|
------------------||  ||--------|------------------|

ESTRIBILLO
       A#                  D#
I was just my imagination, one again
A#                D#
running away with me
       A#
I was just my imagination,
A#           D#
running away me


SOLO:

-------------------|---------------|---------------------------------------------
---3-6^6^6^6^-6-5-3|---3-6^^^-6-5-3|3-5-6^6-5-3-6^6-5-3-6^6-5-3-6^5-3-5~3--3-----
3-5----------------|3-5------------|--------------------------------------5-5-3-5
-------------------|---------------|---------------------------------------------
-------------------|---------------|---------------------------------------------
-------------------|---------------|---------------------------------------------


--------------------|--------------------|---|
--------------------|--------------------|---|
------3-3--3(2)-----|------3-3-3--6^P-5-3|-x2|
-3-3-5---5-----5-3-5|-3-3-5---5----------|---|
--------------------|--------------------|---|
--------------------|--------------------|---|



NOTA:
^ : es levantar la cuerda..
p : pull-off
(): es levantar o bajar la cuerda hasta donde indique el numero que esta dentro del paréntesis


BUENO ESPERO QUE LE SIRVA,,, AGUANTE JOVENES.. proximamente START ME UP..
cualquier duda hacerlo a:  federnr_la25@hotmail.com
Calificar esta versión:
Aviso: Este fichero es trabajo propio de su transcriptor y representa su interpretación personal de la canción. El material contenido en esta página es para exclusivo uso privado, por lo que se prohibe su reproducción o retransmisión, así como su uso para fines comerciales.