Hermano, Jovenes Pordioseros (tablatura)

Autor: Anónimo | 22581 visualizaciones

Se te salió la cadena amigo?
Esta es tu banda.
Esta es tu canción

INTRO: MI-RE-SI X4

MI           SI
Yo soy tu hermano
MI            SI
yo soy tu amigo
SI           MI             INTRO X2
hoy que tome me puedo expresar

MI          SI
Yo te quiero
MI              SI
por lo que me diste ayer
MI       SI               INTRO X 2
yo te amo por lo que me das... me das

LA                     MI
No me importa lo que hagas
FA#             RE
porque yo te elegí
RE                         MI
no creo que entienda la soledad
                 INTRO X2
el día que no estés

MI       SI
Envenados
MI       SI
acelerados
MI         SI               INTRO X2
pero sintiendo nuestro corazón

MI           SI
Sos alta gente
MI            SI
siempre a mi lado
MI          SI               INTRO X2
Cuantas personas que vimos pasar

LA                     MI
No me importa lo que hagas
FA#             RE
porque yo te elegí
RE                         MI
no creo que entienda la soledad
                 INTRO X2
el día que no estés

SOLO

e|----7----7-------|----7----7-------|----7----7-------|
B|----7----7--(7)--|----7----7--(7)--|----7----7--(7)--|
G|-9b---9b----(9b)-|-9b---9b----(9b)-|-9b---9b----(9b)-|
D|-----------------|-----------------|-----------------|
A|-----------------|-----------------|-----------------|
E|-----------------|-----------------|-----------------|

e|---------|----------|---------|-----------------------|
B|---------|----------|---------|-----------------------|
G|-2b-(2b)-|-2b-2b--4-|-2b-(2b)-|-4br-6br-8br-10br-15br-|
D|---------|----------|---------------------------------|
A|---------|----------|---------|-----------------------|
E|---------|----------|---------|-----------------------|

  /------esta parte es rápida------
e|-------------13-16-13-------------|----------|
B|-------13-15----------15-13-------|----------|
G|-13-15----------------------15-13-|-13h(15~)-|
D|----------------------------------|----------|
A|----------------------------------|----------|
E|----------------------------------|----------|


LA                     MI
No me importa lo que hagas
FA#             RE
porque yo te elegí
RE                         MI
no creo que entienda la soledad
                 INTRO X2
el día que no estés


Solo sobre la intro
Calificar esta versión:
Aviso: Este fichero es trabajo propio de su transcriptor y representa su interpretación personal de la canción. El material contenido en esta página es para exclusivo uso privado, por lo que se prohibe su reproducción o retransmisión, así como su uso para fines comerciales.