Ella Es Tan Cruel, Jovenes Pordioseros (tablatura)

Autor: Anónimo | 45367 visualizaciones

Intro:

e|-7-7-0-5-5-0-4-4-0-2-2-0-|--|
B|-7-7-0-5-5-0-5-5-0-0-0-0-|--|
G|-------------------------|x4|
D|-------------------------|--|
A|-------------------------|--|
E|-------------------------|--|


Estrofa 1:

     SI                      MI
Perdoname por el beso que te di,
     SI                       FA#
no sabia que te ibas a poner asi,
         MI        DO#m        MI            DO#m
estoy cansado de llamar, de no verte, de esperar,
  LA            MI        SI
¿cuándo vas a dejar de mentir?


Intro x2


Estrofa 2: (igual)

Perdoname la verguenza que cause,
es que nunca me enseñaron a tomar,
no hay remedio para mi ni medicina que probar,
¿cuando vas a dejar de mentir?


Estribillo:

LA   MI
Ella es tan cruel,
LA   MI
ella es tan cruel,
LA   MI              SI*
ella es tan cruel conmigo

     SI*
e|----------|
B|----------|
G|----------|
D|-9-7-6-7~-|
A|----------|
E|----------|


Solo: MI DO#m [x2] | SI DO#m RE SI | MI DO#m [x2] | SI DO#m RE SI

e|---------------|--------------------|----------------|
B|---------------|--------------------|----------------|
G|---------------|------9-11~-9-8-----|-9h11-11b-(11b)-|
D|-9~------11-9~-|-9-11-----------11~-|----------------|
A|----11-9-------|--------------------|----------------|
E|---------------|--------------------|----------------|

e|------------|----------|-----------|
B|-9h11-(11b)-|-11b-9----|-----------|
G|------------|-------9~-|-9p8-x-----|
D|------------|----------|-------11~-|
A|------------|----------|-----------|
E|------------|----------|-----------|

e|------------------|------------------|------------------|------|
B|------------------|------------------|------------------|------|
G|------8-9p8-------|------8-9p8-------|------8-9p8-------|-(8~)-|
D|-9-11-------11-9~-|-9-11-------11-9~-|-9-11-------11-9~-|------|
A|------------------|------------------|------------------|------|
E|------------------|------------------|------------------|------|

e|---------------|---------------|---------------------------|
B|---------------|---------------|---------------------------|
G|---------------|---------------|---------------------------|
D|-9~------11-9~-|---------------|---------------------------|
A|----11-9-------|-11~~-9~~-7~~/-|-7-6-7-9-7-6-7-6-7-6-------|
E|---------------|---------------|---------------------9-9~/-|

e|------------------|------------------|------------------|
B|------------------|------------------|------------------|
G|------8-9p8-------|------8-9p8-------|------8-9p8-------|
D|-9-11-------11-9~-|-9-11-------11-9~-|-9-11-------11-9~-|
A|------------------|------------------|------------------|
E|------------------|------------------|------------------|

e|----7-7----7-7----7-7----7-7-7-7-(7)-|
B|----7-7----7-7----7-7----7-7-7-7-(7)-|
G|-9b-----9b-----9b-----9b-------------|
D|-------------------------------------|
A|-------------------------------------|
E|-------------------------------------|


Estribillo:

Ella es tan cruel,
ella es tan cruel,
ella es tan cruel conmigo
Ella es tan cruel,
ella es tan cruel,
                      INTRO
ella es tan cruel conmigo, conmigo, conmigo, yo soy tan bueno...

FIN en MI



b= bend (estirar)
p= pull off (ligado descendente)
h= hammer on (ligado ascendente)
~= vibrato
()= dejar sonar
/= slide (arrastrar)
x= nota muerta

Cualquier cosa, ya tienen mi mail. Dedicada a eze.mp3
Calificar esta versión:
Aviso: Este fichero es trabajo propio de su transcriptor y representa su interpretación personal de la canción. El material contenido en esta página es para exclusivo uso privado, por lo que se prohibe su reproducción o retransmisión, así como su uso para fines comerciales.