En Tu Estrella, Jose Andrea (tablatura)

Autor: raulazo | 15297 visualizaciones



Primeramente:esta es la introducion con arpegios,toda la cancion es con estos
   arpegios :D

         DoM                 SolM
    1---------------0----|-----------3-----------
    2-------------2---2--|---------0---0---------
    3-----------0--------|-------0---------------
    4--------------------|-----------------------
    5--0-2-3-------------|-----------------------
    6--------------------|--3--------------------
        FaM        Mim           Lam
    1--------1---------0--|---------0------------
    2------1---------0----|-------1---1----------
    3----2---------0------|-----2------2---------
    4--3--------2---------|----------------------
    5---------------------|--0-------------------
    6---------------------|----------------------

   Cuando tu llores,te reire
DoM          SolM  FaM Mim-Lam
   y si te pierdes te tendre
DoM          SolM       Lam
   cuando tu calles,te hablare
DoM          SolM   FaM Mim-Lam
   y en tu silencio,dire...
DoM          SolM       Lam

   Cuando me olvides,a ti ire
DoM          SolM  FaM Mim-Lam
   y si tu sueñas,dormire
DoM          SolM       Lam
   y si el invierno en ti decide morar,
DoM              SolM  FaM    Mim-Lam
   sere calor, y mi abrazo ...tu hogar
DoM      SolM                    Lam-SolM

               

      Y en tu estrella,noche sere,
DoM              SolM  FaM    Mim-Lam
      para dormir en ti otra vez
      FaM     SolM           DoM-solM
      Y en tu estrella,un haz de luz sere,
DoM              SolM   FaM        Mim-Lam
      para acariciarte ahi donde estes.
      FaM     SolM                DoM-solM

 Y cuando muera,me marchare
 sin una queja y en paz
 pues he tenido en ti la mas bella flor
 y en cada beso,¡amor!...
  
Dedico esta cancion a alguien muy especial.
Sugerencias a [email protected]
Saludos a Puno.Peru






Calificar esta versión:
Aviso: Este fichero es trabajo propio de su transcriptor y representa su interpretación personal de la canción. El material contenido en esta página es para exclusivo uso privado, por lo que se prohibe su reproducción o retransmisión, así como su uso para fines comerciales.