La China Que Yo Tenia, Jorge Veloza (tablatura)

Autor: LOCOCOCOCO | 45025 visualizaciones



e--5--7-7-7-5-5-7-7-5-5-7-7-5-5-3--3-5-5-3-3-5-5-3-3-5-5-3-3-2---
G--7--8-8-8-7-7-8-8-7-7-8-8-7-7-5--5-7-7-5-5-7-7-5-5-7-7-5-5-3---
B-------------------------------------------------
D-----------------------------------------------------------
A-----------------------------------------------------------
E-----------------------------------------------------------


e------2-2-0---------7-7--5-5--3-3--2---------------------------------
G--3-3-------2--3-3--8-8--7-7--5-5--3--------------------------------
B-----------------------------------2----------------------
D-----------------------------------------------------------
A-----------------------------------------------------------
E-----------------------------------------------------------





Calificar esta versión:
Aviso: Este fichero es trabajo propio de su transcriptor y representa su interpretación personal de la canción. El material contenido en esta página es para exclusivo uso privado, por lo que se prohibe su reproducción o retransmisión, así como su uso para fines comerciales.