El Sueñero, Jorge Fandermole (tablatura)

Autor: Anónimo | 34501 visualizaciones

E-----|---|---|---|---|---|---|---|-----|----|----|----|---|---|--||
A-10--|9--|10-|5--|9--|5--|4--|2--|-10--|9---|10--|5---|9--|5--|4-||
D-----|---|---|---|---|---|---|---|-----|----|----|----|---|---|--||
G-----|---|---|---|---|---|---|---|-----|----|----|----|---|---|--||
B-----|---|---|---|---|---|---|---|-----|----|----|----|---|---|--||
E-12--|10-|12-|7--|10-|7--|5--|3--|-12--|10--|12--|7---|10-|7--|5-||

(SOL - DOm SOL) X2

SOL       DO       SOL
Silbo en la oscuridad
MIm        Mim/D#  MIm   MIm7
animal sin re------po---so
LA7             LAm7
torres de la vigilia
       SOL   DO   SOL
candela de los ojos
SOL        DO    SOL
no se que pueda ser
       Mim   Mim/D# Mim/D Mim/C#
si una curva del tiempo
DO maj7              FA7  SOL   DO     SOL
o un hueco en el corazón atento

Trigo sobre el brocal
para que coma el hambre
y abajo el peligroso
agujero de la sangre
no hallo, no puedo ver
mas que la noche alerta
y el misterio detrás
de las puertas



  DO    RE         MIm
  Sueñero, jinete sin descanso;
  LA7   DO             SOL   DO    SOL
  sueñero, sobre un papel en blanco
  MIm  SIm         DO        SOL
  sueñero, centinela de mi alma,
  MIm  Mim/D  Mim/C#             DO    SOL
  Sue---ñe------ro, duérmete y dame calma

(SOL - DO - SOL) X2


E----|----|----|3---|----|----|----|----|----|------|----|-----||
A----|----|----|----|0---|-2--|----|----|----|------|-3--|-5---||
D-2--|1--4|2---|----|----|----|-2--|-1--|-4--|5-4-2-|-2--|-----||
G----|----|----|--0-|--0-|----|----|----|----|------|-0--|-----||
B--0-|----|-0-0|0---|1---|-3--|---0|----|----|------|-1--|-3---||
E-3--|2--5|3-3-|----|----|----|-3--|-2--|-5--|7-5-3-|-0--|---5-||

(SOL - DO - SOL) X2

Llevo cada mitad
como dos ríos gemelos
uno cruza la tierra
el otro fluye en el cielo
el de la oscuridad
no conoce el olvido
desvelado en seguir
lo perdido

Ay, este toro azul,
fatigado y sediento
de correr tras la nada
como la luz y el viento!

Ardo sin preguntar
igual que lo hace el fuego
tal vez halle cantando
el sosiego

  Sueñero, enigma de un penitente
  sueñero, andando entre los durmientes
  sueñero, espina de las estrellas;
  sueñero, olvidate de ella


E----|----|----|3---|----|----|----|----|----|------|----|-----||
A----|----|----|----|0---|-2--|----|----|----|------|-3--|-5---||
D-2--|1--4|2---|----|----|----|-2--|-1--|-4--|5-4-2-|-2--|-----||
G----|----|----|--0-|--0-|----|----|----|----|------|-0--|-----||
B--0-|----|-0-0|0---|1---|-3--|---0|----|----|------|-1--|-3---||
E-3--|2--5|3-3-|----|----|----|-3--|-2--|-5--|7-5-3-|-0--|---5-||


  Sueñero, jinete sin descanso
  sueñero, sobre un papel en blanco
  sueñero, centinela de mi alma
  sueñero, duermete y dame calma.
Calificar esta versión:
Aviso: Este fichero es trabajo propio de su transcriptor y representa su interpretación personal de la canción. El material contenido en esta página es para exclusivo uso privado, por lo que se prohibe su reproducción o retransmisión, así como su uso para fines comerciales.